Sanford Clark

Still As The Night

Sanford Clark

bass

by  HUGO_RODRIGUES

save to print version add songbook text version e-mail correct tuner
chordsukulelecavacokeyboardtabbassdrumsharmonicaflute Guitar Pro
close

there isn't a video lesson for this song

chords

Still As The Night

	  		
G|----------------------------------------------------------------| 
D|----------------------------------------------------------------| 
A|----------------------------------------------------------------| 
E|0-----------0---0-------0-------0-------------------------------| 

G|----------------------------------------------------------------| 
D|----------------------------------------------------------------| 
A|----------------------------------------------------------------| 
E|3-----------3---3-------3---3---3-------------------------------| 

G|----------------------------------------------------------------| 
D|----------------------------------------------------------------| 
A|----------------------------------------------------------------| 
E|0-----------0---0-------0---0---0-------------------------------| 

G|----------------------------------------------------------------| 
D|----------------------------------------------------------------| 
A|----------------------------------------------------------------| 
E|3-----------3---3-------3---3---3-------3-------3-------3-------| 

0:19 

G|----------------------------------------------------------------| 
D|----------------------------------------------------------------| 
A|3-------3---3---3-------3-------3-------3---3---3-------3-------| 
E|----------------------------------------------------------------| 

G|----------------------------------------------------------------| 
D|----------------------------------------------------------------| 
A|----------------------------------------------------------------| 
E|3-------3---3---3-------3---3---3-------3-------3-------3-------| 

G|----------------------------------------------------------------| 
D|----------------------------------------------------------------| 
A|3-------3---3---3-------3---3---3-------3-------3-------3-------| 
E|----------------------------------------------------------------| 

G|----------------------------------------------------------------| 
D|----------------------------------------------------------------| 
A|5-------5---5---5-------5-------5-------------------------------| 
E|----------------------------------------------------------------| 

0:36 

G|----------------------------------------------------------------| 
D|----------------------------------------------------------------| 
A|----------------------------------------------------------------| 
E|0-----------0---0-------0---0---0-------0-------0-------0-------| 

G|----------------------------------------------------------------| 
D|----------------------------------------------------------------| 
A|----------------------------------------------------------------| 
E|3-------3-------3-------3---3---3-------3-------3-------3-------| 

G|----------------------------------------------------------------| 
D|----------------------------------------------------------------| 
A|----------------------------------------------------------------| 
E|0-------0---0---0-------0-------0-------0-------0-------0-------| 

G|----------------------------------------------------------------| 
D|----------------------------------------------------------------| 
A|----------------------------------------------------------------| 
E|3-------3---3---3-------3---3---3-------------------------------| 

0:52 

G|----------------------------------------------------------------| 
D|----------------------------------------------------------------| 
A|----------------------------------------------------------------| 
E|0---------------0-------0-------0-------------------------------| 

G|----------------------------------------------------------------| 
D|----------------------------------------------------------------| 
A|----------------------------------------------------------------| 
E|3-------3---3---3-------3---3---3-------------------------------| 

G|----------------------------------------------------------------| 
D|----------------------------------------------------------------| 
A|----------------------------------------------------------------| 
E|0-------0---0---0-------0---0---0-------------------------------| 

G|----------------------------------------------------------------| 
D|----------------------------------------------------------------| 
A|----------------------------------------------------------------| 
E|3-------3---3---3-------3---3---3-------3---3---3-------3-------| 

1:09 

G|----------------------------------------------------------------| 
D|----------------------------------------------------------------| 
A|3-------3-------3-------3---3---3-------3-------3-------3-------| 
E|----------------------------------------------------------------| 

G|----------------------------------------------------------------| 
D|----------------------------------------------------------------| 
A|----------------------------------------------------------------| 
E|3-------3---3---3-------3---3---3-------3-------3-------3-------| 

G|----------------------------------------------------------------| 
D|----------------------------------------------------------------| 
A|3-------3-------3-------3---3---3-------3-------3-------3-------| 
E|----------------------------------------------------------------| 

G|----------------------------------------------------------------| 
D|----------------------------------------------------------------| 
A|5-------5-------5-------5-------5-------------------------------| 
E|----------------------------------------------------------------| 

1:26 

G|----------------------------------------------------------------| 
D|----------------------------------------------------------------| 
A|----------------------------------------------------------------| 
E|0-------0-------0-------0---0---0-------0-------0-------0-------| 

G|----------------------------------------------------------------| 
D|----------------------------------------------------------------| 
A|----------------------------------------------------------------| 
E|3-------3---3---3-------3---3---3-------3-------3-------3-------| 

G|----------------------------------------------------------------| 
D|----------------------------------------------------------------| 
A|----------------------------------------------------------------| 
E|0-------0---0---0-------0---0---0-------0---0---0-------0-------| 

G|----------------------------------------------------------------| 
D|----------------------------------------------------------------| 
A|----------------------------------------------------------------| 
E|3-------3-------3-------3---3---3-------3---3---3-------3-------| 

G|----------------------------------------------------------------| 
D|----------------------------------------------------------------| 
A|----------------------------------------------------------------| 
E|0-------0-------0-------0---0---0-------0-------0-------0-------| 

G|----------------------------------------------------------------| 
D|----------------------------------------------------------------| 
A|----------------------------------------------------------------| 
E|3-------3---3---3-------3---3---3-------------------------------| 

1:51 

G|----------------------------------------------------------------| 
D|----------------------------------------------------------------| 
A|----------------------------------------------------------------| 
E|0-------0-------0-------0---0---0-------------------------------| 

G|----------------------------------------------------------------| 
D|----------------------------------------------------------------| 
A|----------------------------------------------------------------| 
E|3-------3-------3-------3-------3-------------------------------| 

G|----------------------------------------------------------------| 
D|----------------------------------------------------------------| 
A|----------------------------------------------------------------| 
E|0-------0---0---0-------0---0---0-------------------------------| 

G|----------------------------------------------------------------| 
D|----------------------------------------------------------------| 
A|----------------------------------------------------------------| 
E|3-----------3---3-------3---3---3-------3---3---3-------3-------| 

2:08 

G|----------------------------------------------------------------| 
D|----------------------------------------------------------------| 
A|3-------3---3---3-------3-------3-------3-------3-------3-------| 
E|----------------------------------------------------------------| 

G|----------------------------------------------------------------| 
D|----------------------------------------------------------------| 
A|----------------------------------------------------------------| 
E|3-------3-------3-------3---3---3-------3---3---3-------3-------| 

G|----------------------------------------------------------------| 
D|----------------------------------------------------------------| 
A|3-------3-------3-------3---3---3-------3---3---3-------3-------| 
E|----------------------------------------------------------------| 

G|----------------------------------------------------------------| 
D|----------------------------------------------------------------| 
A|5-------5-------5-------5-------5-------------------------------| 
E|----------------------------------------------------------------| 

2:24 Until fadeout. 

G|----------------------------------------------------------------| 
D|----------------------------------------------------------------| 
A|----------------------------------------------------------------| 
E|0-----------0---0-------0---0---0-------0-------0-------0-------| 

G|----------------------------------------------------------------| 
D|----------------------------------------------------------------| 
A|----------------------------------------------------------------| 
E|3-----------3---3-----------3---3-------3---3---3-------3---3---| 

G|----------------------------------------------------------------| 
D|----------------------------------------------------------------| 
A|----------------------------------------------------------------| 
E|0-------0-------0-----------0---0-------0---0---0-------0-------| 

G|----------------------------------------------------------------| 
D|----------------------------------------------------------------| 
A|----------------------------------------------------------------| 
E|3-------3---3---3-------3---3---3-------3---3---3-------3-------| 
		  

See also:

bass Guns N' Roses - Civil War bass Kiss - Black Diamond bass Guns N' Roses - Sweet Child O' Mine bass Guns N' Roses - Coma bass Guns N' Roses - Sweet Child O' Mine (ver. 2) bass Counting Crows - Mr Jones
e-chords

Other versions:

bass Sanford Clark - Still As The Night
auto scroll beats size up size down change color hide chords drawings
tab show chords e-chords YouTube Clip e-chords hide all tabs e-chords go to top tab

share