Sam Lachow

The Idea

Sam Lachow

bass

by  TARIKIKE

save to print version add songbook text version e-mail correct tuner
chordsukulelecavacokeyboardtabbassdrumsharmonicaflute Guitar Pro
close

there isn't a video lesson for this song

chords

The Idea

	  		G|-----------------------------------------------------------| 
D|--------5---------8-8\\3-3--1-1---1------------------------| 
A|---------5----------------------1----1//5-5-5-5\-----------| 
E|-3-3-6-----5/6-6-6--------------------------------\1-1-1-1-| 

G|------------------------------------------------| 
D|----------5---------8-8\\3-3----0-1-----0-1-----| 
A|-----------5------------------3-----3-3---------| 
E|--3-3--6-----5/6-6-6-----------------3------1-1-| 



************************************ 

| \  Slide down 
| /  Slide up 

************************************ 
		  

See also:

bass Deep Purple - Burn (ver. 2) bass Deep Purple - Smoke On The Water (ver. 3) bass Deep Purple - Strange kind of woman bass Deep Purple - Into The Fire bass Deep Purple - Burn Ver.(2) bass Deep Purple - Smoke On The Water
e-chords

Other versions:

bass Sam Lachow - The Idea
auto scroll beats size up size down change color hide chords drawings
tab show chords e-chords YouTube Clip e-chords hide all tabs e-chords go to top tab

share