Run-D.M.C.

home > Run-D.M.C.

Roots Rock Reggae Bass Tab

Run-D.M.C.

Difficulty: nolevelnolevel

by sabrjoao

tuner correct add songbook print version text version save to e-mail
chordsukulelecavacokeyboardtabbassdrumsharmonicsflute Guitar Pro
chords

Roots Rock Reggae

  		
Intro 

(4 bars rest) 
G|---------------| 
D|---------------| 
A|---------------| 
E|---------------| 

Chorus 1 & verse 1 

                   (7x) 
G|-------------------| 
D|-------------------| 
A|----0-0-0-0---2----| 
E|----------------0--| 

Chorus 2 & verse 2 

                   (5x) 
G|-------------------| 
D|-------------------| 
A|----0-0-0-0---2----| 
E|----------------0--| 

Chorus 3 & verse 3 

                   (5x) 
G|-------------------| 
D|-------------------| 
A|----0-0-0-0---2----| 
E|----------------0--| 

Chorus 4 & verse 4 

                   (10x) 
G|-------------------| 
D|-------------------| 
A|----0-0-0-0---2----| 
E|----------------0--| 

Chorus 5 
                   (2x) 
G|-------------------|-------------------| 
D|-------------------|-------------------| 
A|----0-0-0-0---2----|----0-0-0-0---2----| 
E|----------------0--|-------------------| 

Bridge 

(2 bars rest) 
G|---------------| 
D|---------------| 
A|---------------| 
E|---------------| 

                   (4x) 
G|-------------------| 
D|-------------------| 
A|----0-0-0-0---2----| 
E|----------------0--| 

(2 bars rest) 
G|---------------|-------------------| 
D|---------------|-------------------| 
A|---------------|----0-0-0-0---2----| 
E|---------------|----------------0--| 

(3 bars rest) 
G|---------------| 
D|---------------| 
A|---------------| 
E|---------------| 

Chorus 6 & Verse 6 

(4 bars rest) 
G|---------------| 
D|---------------| 
A|---------------| 
E|---------------| 

                   (2x) 
G|-------------------| 
D|-------------------| 
A|----0-0-0-0---2----| 
E|----------------0--| 

Outro 

(4 bars rest) 
G|---------------|-------------------| 
D|---------------|-------------------| 
A|---------------|----0-0-0----------| 
E|---------------|-------------------| 
	  

Search Paypal
auto scroll beats size up size down change color hide chords drawings
tab show chords e-chords YouTube Clip e-chords hide all tabs e-chords go to top tab