Rudimentary Peni

Architectonic And Dominant

Rudimentary Peni

bass

by  ANDRSOUZA

save to print version add songbook text version e-mail correct tuner
chordsukulelecavacokeyboardtabbassdrumsharmonicaflute Guitar Pro
close

there isn't a video lesson for this song

chords

Architectonic And Dominant

	  		
Intro 
G|-----------------|---------------------|-------------------|----------------| 
D|-----------------|---------------------|-------------------|----------------| 
A|-4---------------|-11---11-11-11-11-11-|-9---------7-------|-5--------------| 
E|---3----0-6----3-|---------------------|---10-9-8----8-7-6-|---6------------| 

verse 1 
(:09) 
G|-----------------|---------------------|-----------------|---------------------| 
D|-----------------|---------------------|-----------------|---------------------| 
A|-----------------|---------------------|-----------------|---------------------| 
E|-7-7-7-7-8-8-8-8-|-9-9-9-9-10-10-10-10-|-7-7-7-7-8-8-8-8-|-9-9-9-9-10-10-10-10-| 

G|-----------------|---------------------|-----------------|---------------------| 
D|-----------------|---------------------|-----------------|---------------------| 
A|-----------------|---------------------|-----------------|---------------------| 
E|-7-7-7-7-8-8-8-8-|-9-9-9-9-10-10-10-10-|-7-7-7-7-8-8-8-8-|-9-9-9-9-10-10-10-10-| 

verse 2 
(:18) 
G|-----------------|-----------------|-----------------|-----------------| 
D|-----------------|-----------------|-----------------|-----------------| 
A|-----------------|-3-3-3-3---------|-----------------|-3-3-3-3---------| 
E|-5-5-5-5-3-3-3-3-|---------6-6-6-6-|-5-5-5-5-3-3-3-3-|---------6-6-6-6-| 

G|-----------------|-----------------|-----------------|-----------------| 
D|-----------------|-----------------|-----------------|-----------------| 
A|-----------------|-3-3-3-3---------|-----------------|-3-3-3-3---------| 
E|-5-5-5-5-3-3-3-3-|---------6-6-6-6-|-5-5-5-5-3-3-3-3-|---------6-6-6-6-| 

G|-----------------|-----------------| 
D|-----------------|-----------------| 
A|-----------------|-----------------| 
E|-5---------------|-----------------| 

Outro 
(:28) 
G|-----------------|---------------------|-------------------|----------------| 
D|-----------------|---------------------|-------------------|----------------| 
A|-4---------------|-11---11-11-11-11-11-|-9---------7-------|-5--------------| 
E|---3----0-6----3-|---------------------|---10-9-8----8-7-6-|---6------------| 
		  

See also:

bass Deep Purple - Burn Ver.(2) bass Deep Purple - Speed King bass Deep Purple - Into The Fire bass Deep Purple - Black Night bass Deep Purple - Lady Double Dealer bass Deep Purple - Smoke On The Water
e-chords

Other versions:

bass Rudimentary Peni - Architectonic And Dominant
auto scroll beats size up size down change color hide chords drawings
tab show chords e-chords YouTube Clip e-chords hide all tabs e-chords go to top tab

share