Rodney Atkins

home > Rodney Atkins

Caught Up In The Country Bass Tab

Rodney Atkins

Difficulty: nolevelnolevel

by ubirbomfim

tuner correct add songbook print version text version save to e-mail
chordsukulelecavacokeyboardtabbassdrumsharmonicsflute Guitar Pro
chords

Caught Up In The Country

  		Intro 

G|------------| 
D|------------| 
A|-3--------5-| 
E|----3--0----| x2  


verse 1 

G|------------| 
D|------------| 
A|-3--------5-| 
E|----3--0----| x4 


Pre-Chorus 

G|------------| 
D|------------| 
A|-3--------5-| 
E|----3--0----|  

G|------------| 
D|------------| 
A|-3-----7--5-| 
E|----3-------|  

G|------------| 
D|------------| 
A|-3--------5-| 
E|----3--0----|  

G|------------| 
D|------------| 
A|-3-----7--5-| 
E|----3-------|  


Chorus 1 

G|------------| 
D|------------| 
A|-3--------5-| 
E|----3--0----| x2 

G|------------| 
D|------------| 
A|-3-----7--5-| 
E|----3-------|  

G|------------| 
D|------------| 
A|-3--------5-| 
E|----3--0----| 


Chorus 2 

G|------------| 
D|------------| 
A|-3--------5-| 
E|----3--0----| 

G|------------| 
D|------------| 
A|-3-----7--5-| 
E|----3-------|  

G|------------| 
D|------------| 
A|-3--------5-| 
E|----3--0----| 


verse 2 

G|------------| 
D|------------| 
A|-3--------5-| 
E|----3--0----| 

G|------------| 
D|------------| 
A|-3-----7--5-| 
E|----3-------|  

G|------------| 
D|------------| 
A|-3--------5-| 
E|----3--0----| 

G|------------| 
D|------------| 
A|-3-----7--5-| 
E|----3-------|  


Chorus 1 

G|------------| 
D|------------| 
A|-3--------5-| 
E|----3--0----| x2 

G|------------| 
D|------------| 
A|-3-----7--5-| 
E|----3-------|  

G|------------| 
D|------------| 
A|-3--------5-| 
E|----3--0----| 


Chorus 2 

G|------------| 
D|------------| 
A|-3--------5-| 
E|----3--0----| 

G|------------| 
D|------------| 
A|-3-----7--5-| 
E|----3-------|  

G|------------| 
D|------------| 
A|-3----------| 
E|------------| 


Bridge 

G|-----| 
D|-----| 
A|-3---| 
E|-----| Hold this note for 2 bars 

G|------------| 
D|------------| 
A|-3--------5-| 
E|----3--0----| 

G|------------| 
D|------------| 
A|-3-----7--5-| 
E|----3-------| x2 

G|------------| 
D|------------| 
A|-3--------5-| 
E|----3--0----| 


Chorus 3 (Nothing here) 


Outro 

G|------------| 
D|------------| 
A|-3--------5-| 
E|----3--0----| 

G|------------| 
D|------------| 
A|-3-----7--5-| 
E|----3-------|  

G|------------| 
D|------------| 
A|-3--------5-| 
E|----3--0----| 

G|------------| 
D|------------| 
A|-3-----7--5-| 
E|----3-------|  

G|------------------| 
D|------------------| 
A|-3-------5--3\----| 
E|----3\------------| 


************************************ 

| \  Slide down 

************************************ 
	  

Search Paypal
auto scroll beats size up size down change color hide chords drawings
tab show chords e-chords YouTube Clip e-chords hide all tabs e-chords go to top tab