Rick James

Dance With Me

Rick James

bass

by  ABELAMIN

save to print version add songbook text version e-mail correct tuner
chordsukulelecavacokeyboardtabbassdrumsharmonicaflute Guitar Pro
close

there isn't a video lesson for this song

chords

Dance With Me

	  		Intro x3 
G |----------------------|------------------------|----14-13-12-| 
D |----------------------|------------------------|-14----------| 
A |----------------------|-0-2-2--0-0-------------|-------------| 
E |-0-0--2-2--4-4--0-5-5-|-------------3-3--0-5-5-|-------------| 

Verse/Chorus 
G |----------------------|------------------------| | 
D |----------------------|------------------------|| 
A |----------------------|-0-2-2--0-0-------------|| 
E |-0-0--2-2--4-4--0-5-5-|-------------3-3-/0-5-5-| | 


************************************ 

| /  Slide up 

************************************ 
		  

auto scroll beats size up size down change color hide chords drawings
tab show chords e-chords YouTube Clip e-chords hide all tabs e-chords go to top tab

share