REM

home > REM

Shiny Happy People Bass Tab

REM

Difficulty: EasyEasy

by rafa93

tuner correct add songbook print version text version save to e-mail
chordsukulelecavacokeyboardtabbassdrumsharmonicsflute Guitar Pro
chords

Shiny Happy People

  		Shiny Happy People 
R.E.M. 
 
Bass (Mike Mills) 
                                                                        
G||--0-------------|----------------|-----------------|---------------| 
D||-------------0--|--2-------------|-----------------|---------------| 
A||----------------|--------------0-|--2--------0--2--|--3------------| 
E||----------------|----------------|-----------------|---------------| 
 
 
                                                                               
--0------4--2--0--|----------------|------------------|-----------------5----| 
------------------|--2-------------|------------------|-------2----5---------| 
------------------|--------------0-|--2------2--0--2--|--3-------------------| 
------------------|----------------|------------------|----------------------| 
 
 
                                                                            
--4--4------------------|-----2----------2----2--|--4--4------------------| 
----------2--2----2--2--|--4-------2--4----------|----------2--2----2--2--| 
------------------------|------------------------|------------------------| 
------------------------|------------------------|------------------------| 
 
 
                                                                            
-----2----2-------2--2--|--4--4------------------|-----2----------2----2--| 
--4------------4--------|----------2--2----2--2--|--4-------2--4----------| 
------------------------|------------------------|------------------------| 
------------------------|------------------------|------------------------| 
 
 
                                                                         
--4--4------------------|-----2----2-------2----|----------------------| 
----------2--2----2--2--|--4------------4-------|--4------4----2-------| 
------------------------|-----------------------|-------------------4--| 
------------------------|-----------------------|----------------------| 
 
 
                                                                         
-----------------------|-----------------------|-----------------------| 
-----------------------|---------2-----0----2--|--------2--2-----------| 
--4----4--4----2----0--|--0---------4----------|--------------4--4--4--| 
-----------------------|-----------------------|-----------------------| 
 
 
                                                                        
----------------------|-----------------------|--2--------------------| 
--4------4----2-------|-----------------------|---------2--4-------2--| 
-------------------4--|--4----4--4----2----0--|---------------4-------| 
----------------------|-----------------------|-----------------------| 
 
 
                                                                          
------------------------|-----------------------|-----------------------| 
--2----2--2-------------|--4----4--4----2-------|-----------------------| 
---------------4--4--4--|--------------------4--|--4----4--4----2----0--| 
------------------------|-----------------------|-----------------------| 
 
 
                                                                           
------------------------|------------------------|-----------------------| 
----------------0----2--|--2----2--2-------------|--4----4--4----2-------| 
--0----0--0--4----------|---------------4--4--4--|--------------------4--| 
------------------------|------------------------|-----------------------| 
 
 
                                                                          
-----------------------|-----------------------|------------------------| 
-----------------------|------------4--0----2--|--2----2--2----2--2--2--| 
--4----4--4----2----0--|--0------0-------------|------------------------| 
-----------------------|-----------------------|------------------------| 
 
 
                                                                       
----------------------|----------------------|-----------------------| 
--5------5--4------4--|--2------2--0------0--|--2------2--0-------2--| 
----------------------|----------------------|---------------2-------| 
----------------------|----------------------|-----------------------| 
 
 
                                                                           
--------------------2--|--4--4------------------|-----2----------2----2--| 
--2--2----2----2-------|----------2--2----2--2--|--4-------2--4----------| 
-----------------------|------------------------|------------------------| 
-----------------------|------------------------|------------------------| 
 
 
                                                                             
--4--4------------------|-----2----x--2-----2--2--|--4--4------------------| 
----------2--2----2--2--|--4-------------4--------|----------2--2----2--2--| 
------------------------|-------------------------|------------------------| 
------------------------|-------------------------|------------------------| 
 
 
                                                                            
-----2----------2----2--|--4--4------------------|-----2----2-------2--2--| 
--4-------2--4----------|----------2--2----2--2--|--4------------4--------| 
------------------------|------------------------|------------------------| 
------------------------|------------------------|------------------------| 
 
 
                                                                        
----------------------|-----------------------|---------2-------------| 
--4------4----2-------|-----------------------|---------------0----2--| 
-------------------4--|--4----4--4----2----0--|--0---------4----------| 
----------------------|-----------------------|-----------------------| 
 
 
                                                                         
------------------------|----------------------|-----------------------| 
--2------2--2-----------|--4------4----2-------|-----------------------| 
---------------4--4--4--|-------------------4--|--4----4--4----2----0--| 
------------------------|----------------------|-----------------------| 
 
 
                                                                         
---------2-------------|------------------------|----------------------| 
------------4--0----2--|------2--2--2-----------|--4------4----2-------| 
--0--------------------|---------------4--4--4--|-------------------4--| 
-----------------------|------------------------|----------------------| 
 
 
                                                                          
-----------------------|-----------------------|------------------------| 
-----------------------|---------------0----2--|-------2--2-------2-----| 
--4----4--4----2----0--|--0------0--4----------|---------------4-----4--| 
-----------------------|-----------------------|--0---------------------| 
 
 
                                                                        
----------------------|-----------------------|-----------------------| 
--4------4----2-------|-----------------------|------------4--0----2--| 
-------------------4--|--4----4--4----2----0--|--0------0-------------| 
----------------------|-----------------------|-----------------------| 
 
 
                                                                         
-------------------------|----------------------|----------------------| 
-------2--2--2--2--2--2--|--5------5--4------4--|--2------2--0------0--| 
-------------------------|----------------------|----------------------| 
--0----------------------|----------------------|----------------------| 
 
 
                                                                          
------------------------|-------------------2--|--4--4------------------| 
--2----2--2--0-------2--|----2----2----2-------|----------2--2----2--2--| 
----------------2-------|----------------------|------------------------| 
------------------------|----------------------|------------------------| 
 
 
                                                                            
-----2----------2----2--|--4--4------------------|-----2----2-------2--2--| 
--4-------2--4----------|----------2--2----2--2--|--4------------4--------| 
------------------------|------------------------|------------------------| 
------------------------|------------------------|------------------------| 
 
 
                                                                            
--4--4------------------|-----2----------2----2--|--4--4------------------| 
----------2--2----2--2--|--4-------2--4----------|----------2--2----2--2--| 
------------------------|------------------------|------------------------| 
------------------------|------------------------|------------------------| 
 
 
                                                                                 
-----2----2-------2--2--|--0------0-------|-----------------|------------------| 
--4------------4--------|--------------0--|--2------2-------|------------------| 
------------------------|-----------------|---------------0-|--2------2--0--2--| 
------------------------|-----------------|-----------------|------------------| 
 
 
                                                                      
---------------|--0--------2--0--|----------------|-----------------| 
---------------|-----------------|--2-------------|-----------------| 
--3------------|-----------------|--------------0-|--2--------0--2--| 
---------------|-----------------|----------------|-----------------| 
 
 
                                                                          
-----------------5----|--4--4------------------|-----2----------2----2--| 
-------2----5---------|----------2--2----2--2--|--4-------2--4----------| 
--3-------------------|------------------------|------------------------| 
----------------------|------------------------|------------------------| 
 
 
                                                                            
--4--4------------------|-----2----2-------2--2--|--4--4------------------| 
----------2--2----2--2--|--4------------4--------|----------2--2----2--2--| 
------------------------|------------------------|------------------------| 
------------------------|------------------------|------------------------| 
 
 
                                                                            
-----2----------2----2--|--4--4------------------|-----2----2-------2--2--| 
--4-------2--4----------|----------2--2----2--2--|--4------------4--------| 
------------------------|------------------------|------------------------| 
------------------------|------------------------|------------------------| 
 
 
                                                                            
--4--4------------------|-----2----------2----2--|--4--4------------------| 
----------2--2----2--2--|--4-------2--4----------|----------2--2----2--2--| 
------------------------|------------------------|------------------------| 
------------------------|------------------------|------------------------| 
 
 
                                                                            
-----2----2-------2--2--|--4--4------------------|-----2----------2----2--| 
--4------------4--------|----------2--2----2--2--|--4-------2--4----------| 
------------------------|------------------------|------------------------| 
------------------------|------------------------|------------------------| 
 
 
                                                                            
--4--4------------------|-----2----2-------2--2--|--4--4------------------| 
----------2--2----2--2--|--4------------4--------|----------2--2----2--2--| 
------------------------|------------------------|------------------------| 
------------------------|------------------------|------------------------| 
 
 
                                                                            
-----2----------2----2--|--4--4------------------|-----2----2-------2--2--| 
--4-------2--4----------|----------2--2----2--2--|--4------------4--------| 
------------------------|------------------------|------------------------| 
------------------------|------------------------|------------------------| 
 
 
                                                                            
--4--4------------------|-----2----------2----2--|--4--4------------------| 
----------2--2----2--2--|--4-------2--4----------|----------2--2----2--2--| 
------------------------|------------------------|------------------------| 
------------------------|------------------------|------------------------| 
 
 
                                                                            
-----2----2-------2--2--|--4--4------------------|-----2----------2----2--| 
--4------------4--------|----------2--2----2--2--|--4-------2--4----------| 
------------------------|------------------------|------------------------| 
------------------------|------------------------|------------------------| 
 
 
                                                                            
--4--4------------------|-----2----2-------2--2--|--4--4------------------| 
----------2--2----2--2--|--4------------4--------|----------2--2----2--2--| 
------------------------|------------------------|------------------------| 
------------------------|------------------------|------------------------| 
 
 
                                                                            
-----2----------2----2--|--4--4------------------|-----2----2-------2--2--| 
--4-------2--4----------|----------2--2----2--2--|--4------------4--------| 
------------------------|------------------------|------------------------| 
------------------------|------------------------|------------------------| 
 
 
                                                         
--4--4------------------|-----2----------2----2--|----|| 
----------2--2----2--2--|--4-------2--4----------|----|| 
------------------------|------------------------|----|| 
------------------------|------------------------|----|| 
 
 

	  

Search Paypal
auto scroll beats size up size down change color hide chords drawings
tab show chords e-chords YouTube Clip e-chords hide all tabs e-chords go to top tab