Red Rider

Caught In The Middle

Red Rider

bass

by  VSWORLD

save to print version add songbook text version e-mail correct tuner
chordsukulelecavacokeyboardtabbassdrumsharmonicaflute Guitar Pro
close

there isn't a video lesson for this song

chords

Caught In The Middle

Year: 2007 - Album: As Far as Siam

	  		
Main Riff 
G|--------------------------|------------------------------------| 
D|--------------------------|------------------------------------| 
A|-3-3--3--3-----3-3--3--3--|--3/8--8--10-----10-10--10--10--10\-| 
E|--------------------------|------------------------------------| 

G|--------------------------|--------------------------------| 
D|--------------------------|---------------------------9-10-| 
A|-3-3--3--3-----3-3--3--3--|--3-8--8--8-----8-10-10-10------| 
E|--------------------------|--------------------------------| 

G|--------------------------|------------------------------------| 
D|--------------------------|------------------------------------| 
A|-3-3--3--3-----3-3--3--3--|--3/8--8--10-----10-10--10--10--10\-| 
E|--------------------------|------------------------------------| 

G|--------------------------|------------------------------------| 
D|--------------------------|------------------------------------| 
A|-3-3--3--3-----3-3--3--3--|--3/8--8--10-----10-10--10--10--10\-| 
E|--------------------------|------------------------------------| 

G|--------------------------|------------------------------------| 
D|--------------------------|------------------------------------| 
A|-3-3--3--3-----3-3--3--3--|--3/8--8--10-----10-10--10--10--10\-| 
E|--------------------------|------------------------------------| 

G|--------------------------|------------------------------------| 
D|--------------------------|------------------------------------| 
A|-3-3--3--3-----3-3--3--3--|--3/8--8--10-----10-10--10--10--10\-| 
E|--------------------------|------------------------------------| 

G|---------------------------|------------------------------| 
D|---------------------------|------------------------------| 
A|-8--8--8--8--8--8--8--8--8-|-7--7--7--7--7--7--7--7--7--7-| 
E|---------------------------|------------------------------| 

G|---------------------------|--------------------------------------------| 
D|---------------------------|--------------------------------------------| 
A|-8--8--8--8--8--8--8--8--8-|-10--10--10--10--10--10--10--10--10--7--10--| 
E|---------------------------|--------------------------------------------| 

G|-----------------------|---------------------| 
D|-----------------------|---------------------| 
A|-----------------------|---------------------| 
E|-8---8--8\--5---5--5\--|-0------0--1---1--1/-| 

G|-----------------------|---------------------| 
D|-----------------------|---------------------| 
A|--------5--------------|---------------------| 
E|-8---8------5---5--5\--|-0------0--1---1--1/-| 

G|----------------------|---------------------| 
D|----------------------|---------------------| 
A|-----5--7-------------|---------------------| 
E|-8---------5---5--5\--|-0------0--1---1--1/-| 

G|------------------------|---------------------| 
D|------------------7\----|---------------------| 
A|-----5-7-5--------------|---------------------| 
E|-8---------8----5-------|-0------0--1---1--1/-| 

G|--------------------------|------------------------------------| 
D|--------------------------|------------------------------------| 
A|-3-3--3--3-----3-3--3--3--|--3/8--8--10-----10-10--10--10--10\-| 
E|--------------------------|------------------------------------| 

G|--------------------------|------------------------------------| 
D|--------------------------|------------------------------------| 
A|-3-3--3--3-----3-3--3--3--|--3/8--8--10-----10-10--10--10--10\-| 
E|--------------------------|------------------------------------| 

G|--------------------------|------------------------------------| 
D|--------------------------|------------------------------------| 
A|-3-3--3--3-----3-3--3--3--|--3/8--8--10-----10-10--10--10--10\-| 
E|--------------------------|------------------------------------| 

G|--------------------------|------------------------------------| 
D|--------------------------|------------------------------------| 
A|-3-3--3--3-----3-3--3--3--|--3/8--8--10-----10-10--10--10--10\-| 
E|--------------------------|------------------------------------| 

G|--------------------------|------------------------------------| 
D|--------------------------|------------------------------------| 
A|-3-3--3--3-----3-3--3--3--|--3/8--8--10-----10-10--10--10--10\-| 
E|--------------------------|------------------------------------| 

G|--------------------------|------------------------------------| 
D|--------------------------|------------------------------------| 
A|-3-3--3--3\---------3--3--|--3/8--8--10-----10-10--10--10--10\-| 
E|--------------------------|------------------------------------| 

G|---------------------------|------------------------------| 
D|---------------------------|------------------------------| 
A|---------------------------|------------------------------| 
E|-1--1--1--1--1--1--1--1--1-|-0--0--0--0--0--0--0--0--0--0-| 

G|---------------------------|------------------------------| 
D|---------------------------|------------------------------| 
A|---------------------------|------------------------------| 
E|-1--1--1--1--1--1--1--1--1-|-3--3--3--3--3--3--3--3--3--3-| 

G|-----------------------|---------------------| 
D|-----------------------|---------------------| 
A|-----------------------|---------------------| 
E|-8---8--8\--5---5--5\--|-0------0--1---1--1/-| 

G|-----------------------|---------------------| 
D|-----------------------|---------------------| 
A|--------5--------------|---------------------| 
E|-8---8------5---5--5\--|-0------0--1---1--1/-| 

G|----------------------|---------------------| 
D|----------------------|---------------------| 
A|-----5--7-------------|---------------------| 
E|-8---------5---5--5\--|-0------0--1---1--1/-| 

G|------------------------|---------------------| 
D|------------------7\----|---------------------| 
A|-----5-7-5--------------|---------------------| 
E|-8---------8----5-------|-0------0--1---1--1/-| 

G|-----------------------------------------------|---------------------------------------------| 
D|-----------------------------------------------|---------------------------------------------| 
A|--3--3---3-3--3--3--3--------------------------|-8--8--8---8-8--8--8---8-8--8--8---8-8--8--8-| 
E|-----------------------5--5--5---5-5--5--5--5--|---------------------------------------------| 

G|-----------------------------------------------|------------------------------------------------| 
D|-----------------------------------------------|------------------------------------------------| 
A|--3--3---3-3--3--3--3--------------------------|-8--8--8---8-8--8--8---8-8--8--8---8-8--8--8h10-| 
E|-----------------------5--5--5---5-5--5--5--5--|------------------------------------------------| 

G|-----------------------------------------------|------------------------------------------------| 
D|-------------------2\--------------------------|------------------------------------------------| 
A|--3--3---3-3--3--3-----------------------------|-8--8--8---8-8--8--8---8-8--8--8---8-8--8--8h10-| 
E|-----------------------5--5--5---5-5--5--5--5--|------------------------------------------------| 

G|-----------------------------------------------|------------------------------------------------| 
D|-----------------------------------------------|------------------------------------------------| 
A|--3--3---3-3--3--3--3--------------------------|------------------------------------------------| 
E|-----------------------5--5--5---5-5--5--5--5--|-1--1--1---1-1--1--1---1-1--1--1---1-1--1--1h3--| 

G|------------------------------------------------|------------------------------------------------| 
D|----------------------2\------------------------|------------------------------------------------| 
A|--3--3---3-3--3--3--3---------------------------|------------------------------------------------| 
E|------------------------5--5--5---5-5--5--5--5--|-1--1--1---1-1--1--1---1-1--1--1---1-1--1--1h3--| 

G|-----------------------|---------------------| 
D|-----------------------|---------------------| 
A|-----------------------|---------------------| 
E|-8---8--8\--5---5--5\--|-0------0--1---1--1/-| 

G|-----------------------|---------------------| 
D|-----------------------|---------------------| 
A|--------5--------------|---------------------| 
E|-8---8------5---5--5\--|-0------0--1---1--1/-| 

G|----------------------|---------------------| 
D|----------------------|---------------------| 
A|-----5--7-------------|---------------------| 
E|-8---------5---5--5\--|-0------0--1---1--1/-| 

G|------------------------|---------------------| 
D|------------------7\----|---------------------| 
A|-----5-7-5--------------|---------------------| 
E|-8---------8----5-------|-0------0--1---1--1/-| 

G|--------------------------|------------------------------------| 
D|--------------------------|------------------------------------| 
A|-3-3--3--3-----3-3--3--3--|--3/8--8--10-----10-10--10--10--10\-| 
E|--------------------------|------------------------------------| 

G|--------------------------|------------------------------------| 
D|--------------------------|------------------------------------| 
A|-3-3--3--3-----3-3--3--3--|--3/8--8--10-----10-10--10--10--10\-| 
E|--------------------------|------------------------------------| 



************************************ 

| /  Slide up 
| \  Slide down 
| h  Hammer-on 

************************************ 
		  

See also:

bass Creedence Clearwater Revival - Molina bass Carpenters - Close to You bass Johnny Cash - Folsom Prison Blues bass Creedence Clearwater Revival - Susie Q bass Beach Boys - Wipeout bass Johnny Cash - Folsom Prison Blues (ver. 2)
e-chords

Other versions:

bass Red Rider - Caught In The Middle
auto scroll beats size up size down change color hide chords drawings
tab show chords e-chords YouTube Clip e-chords hide all tabs e-chords go to top tab

share