Red Hot Chili Peppers

home > Red Hot Chili Pepp...

Skinny sweaty man Bass Tab

Red Hot Chili Peppers

Difficulty: nolevelnolevel

by europeu

tuner correct add songbook print version text version save to e-mail
chordsukulelecavacokeyboardtabbassdrumsharmonicsflute Guitar Pro
chords

Skinny sweaty man

Year: 1987 - Album: Uplift Mofo Party Plan

  		Standard Tuning 
 
 
The verse is pretty fast. 
 
ALL VERSES: 
G|----------------0-----9-| 
D|--------5-5-------------| 
A|----5h7-----5h7---------| 
E|------------------0-----| 
      ^     ^     ^     ^ 
      1  &  2  &  3  &  4  & 
 
Chorus: 
G|------------------------------9| 
D|----12--11--9--7--5-6-7-9------| 
A|--------------------------7-7--| 
E|-------------------------------| 
      ^       ^     ^       ^    
      1   &   2  &  3   &   4     
 
BRIDGE: 
G|----------------------------------------------7---7h9-7--| 
D|-----------5-----------7-------------5----------9--------| 
A|-7-7-5-7-5---7-7-5-7-5-7---7-7-5-7-5----7-5-7------------| 
E|---------------------------------------------------------| 
 
G|--------------------------------------------------| 
D|-----------5-----------------------5-----------7--| 
A|-7-7-5-7-5---7-7-5-7--------7-5-7-5--7-7-5-7-5----| 
E|---------------------7-6-5------------------------| 
 
 

	  

Search Paypal
auto scroll beats size up size down change color hide chords drawings
tab show chords e-chords YouTube Clip e-chords hide all tabs e-chords go to top tab