Red Hot Chili Peppers

home > Red Hot Chili Pepp...

Sexy mexican maid live Bass Tab

Red Hot Chili Peppers

Difficulty: nolevelnolevel

by europeu

tuner correct add songbook print version text version save to e-mail
chordsukulelecavacokeyboardtabbassdrumsharmonicsflute Guitar Pro
chords

Sexy mexican maid live

  		Main bass line: 
 
G-----------------------------------------------| 
D-----------5h6-----------------5---7-5---------| 
A--------5-----7--5---------5h7---------7-------| 
E-0--5h7------------7--0-5----------------5-----| 
 
G---------------------------------------------------| 
D----------5h6-----------------5-7-5------5---------| 
A--------5----7--5---------5h7-------7------7-5-7---| 
E-0--5h7-----------7--0-5--------------5------------| 
 
Slap Part: 
 
G--------------2------------------2-------------------| 
D--------4------------------4-------------------------| 
A-----------------------------------------------------|play this 
E-0-2-2----x-x-----0-2-2-2----x-x---------------------|a bunch of times and: 
  s s s  p s s p   s s s s  p s s p 
G--------------2---------------6---------------| 
D--------6---------------6---------------------| 
A----------------------------------------------| 
E-0-2-44---x-x----0-2-44---x-x-----5-5---7-7---| 
  s s ss p s s p  s s ss p s s p   s s   s s 
 
guitar solo part: 
 
G----------------------------------| 
D----------------------------------| 
A----------------------------------| 
E-00----00----00----10-x11---------| 
  ss    ss    ss    s  s s 
 
In the live SNL version, as ending they play AC DC's "back in black" : 
 
G-----------------------------------------------------| 
D-----------------------------------------------------| 
A-----555--------------555----------------------------| 
E-0-------555------0-------555--0-4-0-5-0-6-0-7-------| 2X 
 
G--------------------------------------------------------| 
D--------------------------5-----------5-----------------| 
A----------------------------5-----------5---------------|2X 
E--5-0-7-5-7---5-0-7-5-7-------5-3-5-------5-3-5---------| 
 
Ending(live): 
 
G----------------------------------| 
D----------------------------------| 
A--5-5-5----7-7-7~~----------------| 
E--------------------0-------------| 
                     s 
 
 
s- slap 
p- pop 
x- mute 
 

	  

Search Paypal
auto scroll beats size up size down change color hide chords drawings
tab show chords e-chords YouTube Clip e-chords hide all tabs e-chords go to top tab