Red Hot Chili Peppers

home > Red Hot Chili Pepp...

Road Trippin' Bass Tab

Red Hot Chili Peppers

Difficulty: BeginnerBeginner

by mneto

tuner correct add songbook print version text version save to e-mail
chordsukulelecavacokeyboardtabbassdrummharmonicsflute Guitar Pro
chords

Road Trippin'

Year: 1999 - Album: Californication

  		Verso 
 
G|----------------5---------|----------------5----------| 
D|--------5-4-2---------5-4-|--------5-4-2--------------| 
A|----7-7-------3---3-2-----|----7-7-------3---3-2------| 
E|--0-----------------------|--0-------------------3-2--| 
 
 
Ponte 
G|----------------------------------------------| 
D|----------------------------------------------| 
A|--0--0--0-0--2--2--2-2--3--3--3-3--5--5--5-5--| 
E|----------------------------------------------| 
 
Solo do cello 
G|-----------| 
D|-----------| 
A|--7--------| 
E|---5-8-10--| 
 
 

	  

Search Paypal
auto scroll beats size up size down change color hide chords drawings
tab show chords e-chords YouTube Clip e-chords hide all tabs e-chords go to top tab