Red Hot Chili Peppers

home > Red Hot Chili Pepp...

Right On Time Bass Tab

Red Hot Chili Peppers

Difficulty: ExpertExpert

by mneto

tuner correct add songbook print version text version save to e-mail
chordsukulelecavacokeyboardtabbassdrummharmonicsflute Guitar Pro
chords

Right On Time

Year: 1999 - Album: Californication

  		s=slap 
p=pop 
 
Verse 
|------------------|------------------|------------------|-----------------| 
|---------X---X----|---------X---X----|---------X---X----|---------11--11--| 
|-7-9-7------------|-7-9-7------------|-7-9-7------------|-7-9-7-----------| 
|-------9---9---9--|-------9---9---9--|-------9---9---9--|-------9---------| 
  s s s s p s p s    s s s s p s p s    s s s s p s p s    s s s s 
 
Chorus and outro 
|---6-6---6-6---9-9---9-9---4-4---4-4---11-11---11-11-| 
|-----------------------------------------------------| 
|-4-----4-----7-----7-----2-----2-----9-------9-------| 
|-----------------------------------------------------| 
 
Chorus variation 
|---11-11---11-11----14-14----14-14---9-9---9-9----16-16----16-16-----| 
|---------------------------------------------------------------------| 
|-9-------9-------12-------12-------7-----7-----14-------14-----------| 
|---------------------------------------------------------------------| 
 
Ending 
|-------------| 
|-------------| 
|-7-9-7-------| 
|-------9\----| 
 

	  

Search Paypal
auto scroll beats size up size down change color hide chords drawings
tab show chords e-chords YouTube Clip e-chords hide all tabs e-chords go to top tab