Red Hot Chili Peppers

home > Red Hot Chili Pepp...

Over funk Bass Tab

Red Hot Chili Peppers

Difficulty: nolevelnolevel

by europeu

tuner correct add songbook print version text version save to e-mail
chordsukulelecavacokeyboardtabbassdrumsharmonicsflute Guitar Pro
chords

Over funk

  		VERSE & PRE-Chorus: 
G------9-9p7------6-6--| 
D--------------------9-| 
A--0h7--------0h7------| 
E----------------------| 
 
G------9-9p7------6-6-----| 
D---------------------7h9-| 
A--0h7--------0h7---------| 
E-------------------------| 
 
G------9-9p7------6-6--| 
D--------------------9-| 
A--0h7--------0h7------| 
E----------------------| 
 
G------9-9p7------9--6-----| 
D----------------------7h9-| 
A--0h7--------0h7----------| 
E--------------------------| 
 
Chorus: 
 
G----------------------| 
D----------------------| 
A----------------------| 
E-0--0-3-000--3--5--2--| 
 
G------------------| 
D------------------| 
A------------------| 
E-0--0-3-000--3--2-| 
 
G----------------------| 
D----------------------| 
A----------------------| 
E-0--0-3-000--3--5--2--| 
 
G---------------------| 
D---------------------| 
A---------------------| 
E-0--0-3-000--5-55-75-| 
 
 
BRIDGE/Really awkward guitar solo: 
G---------------------| 
D-9~~~-7~~~-9~~~-7~~~-| 
A---------------------| 
E---------------------| 
 
G---------------------| 
D---------------------| 
A---------------------| 
E-7~~~-5~~~-7~~~-5~~~-| 
 
G---------------------| 
D-9~~~-7~~~-9~~~-7~~~-| 
A---------------------| 
E---------------------| 
 
G---------------------| 
D---------------------| 
A---------------------| 
E-7~~~-5~~~-7~~~-5~~~-| 
  
  
 

	  

Search Paypal
auto scroll beats size up size down change color hide chords drawings
tab show chords e-chords YouTube Clip e-chords hide all tabs e-chords go to top tab