Red Hot Chili Peppers

home > Red Hot Chili Pepp...

Litle Bass Tab

Red Hot Chili Peppers

Difficulty: nolevelnolevel

by MoRtE%2D

tuner correct add songbook print version text version save to e-mail
chordsukulelecavacokeyboardtabbassdrumsharmonicsflute Guitar Pro
chords

Litle

  		intro 
g---------------------------------------- 
d---------------------------------------- 
a---------------------------------------- 
e---5--7--5--7--5--7--5--7------------ 
 
refrão 
 
g----------------------------------------- 
d-----------7-9999---------------------- 
a----------------------------------------- 
e-5-6-777------------------------------- 
4x 
 
base1 
 
g----------------- 
d----------------- 
a-5---5---5------ 
e--77--77--77--- 
 
refrão-11x 
 
base2 
 
g---------------------------------------- 
d---------------------------------------- 
a-5----5-----------5-----5-------------- 
e---77---77----------77----77---------- 
2x 
 
refrão-4x 
 
base1-1x 
 
solo1 
g--------------------------- 
d-----9-7------------------ 
a--------9-7--9-7-5-7-5--- 
e--7-7--------------------5 
 
refão-6x 
 
solo2 
g-------------------------8------------- 
d---------------------------8-10------- 
a---------------------------------6-8-6 
e-8--------88--------8----------------- 
 
refrão-4x 
 
base2-2x 
 
base3 
 
g------------------------------ 
d-5------5-----5-----5------- 
a----77----77----77----77--- 
e------------------------------ 
 
refrão-8x 
 
base2-2x 
 
e dai é só esperar até acabar a música 
	  

Search Paypal
auto scroll beats size up size down change color hide chords drawings
tab show chords e-chords YouTube Clip e-chords hide all tabs e-chords go to top tab