Red Hot Chili Peppers

home > Red Hot Chili Pepp...

If You Want To Me Stay Bass Tab

Red Hot Chili Peppers

Difficulty: nolevelnolevel

by Windows

tuner correct add songbook print version text version save to e-mail
chordsukulelecavacokeyboardtabbassdrumsharmonicsflute Guitar Pro
chords

If You Want To Me Stay

  		g---------------------------------------------------------------------- 
d-----------------------------------------------2-3-3-3-3-3-3-3-- 
a------------------------------------2-3-3-3------------------------ 
e--5-5-5-5-5-5-5---4-3-3-3------------------------------------ 
 
g-------------------------------------------- 
d--4-5-5-----------9-9--8-8--7-5------ 
a------------7-7-----------------------7--- 
e-------------------------------------------- 
Just repeat that whole thing over + over again till the end 
	  

Search Paypal
auto scroll beats size up size down change color hide chords drawings
tab show chords e-chords YouTube Clip e-chords hide all tabs e-chords go to top tab