Red Hot Chili Peppers

home > Red Hot Chili Pepp...

Higher Ground Bass Tab

Red Hot Chili Peppers

Difficulty: BeginnerBeginner

by Windows

tuner correct add songbook print version text version save to e-mail
chordsukulelecavacokeyboardtabbassdrumsharmonicsflute Guitar Pro
chords

Higher Ground

  		MAIN RIFF:   
          G-|-----------------| 
          D-|----2-------5---7| 
          A-|-----------------| 
          E-|-0-0--0-h3-3-5-5-| 
              S SP S  S SPS SP     simile for rest of song 
  
          Fill 1: (Variation to Main Riff) 
          G-|-----------------------------| 
          D-|-----2-----------------------| 
          A-|-------------3---------------| 
          E-|-0-0---0-3H5---5-4-3---------| 
          Fill 2: 
          G-|--------------7-----6--------| 
          D-|-----2-----------------------| 
          A-|----------5-5---4-4----------| 
          E-|-0-0---0---------------------| 
           
          Interlude after Main Riff: 
          G-|------------------------------------------------ 
          D-|-----4--------7-----9-----4--------7----9------- 
          A-|------------------------------------------------ 
          E-|-2-2---2--5-5---7-7----2-2---2--5-5--7-7-------- 
           
          G-|-------------------7---7-----------------------| 
          D-|------7------7--------------5H7----------------| 
          A-|---------------5--5---5---5--------------------| 
          E-|--5-5---5--5-----------------------------------| 
           
          Chorus: (Not Slapped) 
          Reapeat 2 Times 
          G-|--------------------------------- 
          D-|---------------------------------  
          A-|----------------7-7-7-7-7-5------  
          E-|-5-5--3-5-3-5-3-------------7-6-- 
           
          On Third time Play: (not sure if it's right) 
          G-|--------------------------------9-11-9-------------- 
          D-|--------------------------------------11-10--9-8-9-8  
          A-|----------------7-7-7-7-7-7-7-9-------------9---9---  
          E-|-5-5--3-5-3-5-3------------------------------------- 
           
           
          G-|------------------------| 
          D-|-9--7-------------------| 
          A-|-------9-8-7------------|  
          E-|-------------10-9-8-7-10| 
           
          Outro:(Not Slapped, repeat a couple of times) 
          G-|--------------------| 
          D-|--------------------| 
          A-|--------------------| 
          E-|--0-0-0-0-3-5-0-----| 

	  

Search Paypal
auto scroll beats size up size down change color hide chords drawings
tab show chords e-chords YouTube Clip e-chords hide all tabs e-chords go to top tab