Red Hot Chili Peppers

home > Red Hot Chili Pepp...

Hard to concentrate Bass Tab

Red Hot Chili Peppers

Difficulty: AdvancedAdvanced

by europeu

tuner correct add songbook print version text version save to e-mail
chordsukulelecavacokeyboardtabbassdrumsharmonicsflute Guitar Pro
chords

Hard to concentrate

Year: 2006 - Album: Stadium Arcadium

  		Verse: 
 
   Em                                D       B        D       B 
   +   +   +   +    +   +   +   +    +   +   +   +    +   +   +   +     
G||--16-14-12-14-12|--16-14-12-14-12|----11---11--11-|----11---11--11-|| 
D|.----------------|----------------|----------------|----------------.| 
A|.----------------|----------------|----------------|----------------.| 
E||12--12-12-12-12-|12--12-12-12-12-|-10---107---7---|-10---107---7---|| x2 
 
Chorus: 
 
   C               G                D               Em 
   +       +       +       +        +       +       +       +         
G||----12---------------12--12-----|----11----------------14--12----|| 
D|.--------------------------------|--------------------------------.| 
A|.----------------10-----10-------|--------------------------------.| 
E||--8-----8-----------------------|--10----10------12------12------|| x3 
 
  C               G                D 
  +       +       +       +        +       +       +       +         
G|----12---------------12--12-----|----11----------------11--11----| 
D|--------------------------------|--------------------------------| 
A|----------------10-----10-------|--------------------------------| 
E|--8-----8-----------------------|--10----10------10------10------| 
 
  D 
  +       +       +       +                
G|--------11------------11--11----| 
D|--------------------------------| 
A|--------------------------------| 
E|10--10------10--10------10------| 
 
Bridge: 
   
  C                                 G                D 
  +   +   +   +    +   +   +   +    +   +   +   +    +   +   +   +      
G||----------------|----------------|----------------|----------------|| 
D|.----------------|----------------|----------------|----------------.| 
A|.3~--------------|----------------|----------------|5~--------------.| 
E||----------------|----------------|3~--------------|----------------|| x3 
 
  C                                 G                D 
  +   +   +   +    +   +   +   +    +   +   +   +    +   +   +   +    +   +   +   +   
G|----------------|----------------|----------------|----------------|----------------| 
D|----------------|----------------|----------------|----------------|----------------| 
A|3~--------------|----------------|----------------|5---5---5-555---|5-555---5-555---| 
E|----------------|----------------|3~--------------|----------------|----------------| 
 
Song structure: 
 
Verse x2. 
Chorus. 
Verse. 
Chorus. 
Verse. 
Chorus. 
Bridge. 
Verse. 
Chorus x2, end with 
 
  Em 
G|----------------| 
D|----------------| 
A|----------------| 
E|0~--------------| 
 

	  

Full key step upFull key step up
Half key step upHalf key step up
Half key step downHalf key step down
Full key step downFull key step down
Search Paypal
auto scroll beats size up size down change color hide chords drawings
tab show chords e-chords YouTube Clip e-chords hide all tabs e-chords go to top tab