Red Hot Chili Peppers

home > Red Hot Chili Pepp...

Give It Away Bass Tab

Red Hot Chili Peppers

Difficulty: BeginnerBeginner

by Windows

tuner correct add songbook print version text version save to e-mail
chordsukulelecavacokeyboardtabbassdrummharmonicsflute Guitar Pro
chords

Give It Away

Year: 1991 - Album: Blood Sugar Sex Magik

(Anthony Kiedis/ Chad Smith/ Flea/ John Frusciante)

	  
Intro: 

G|-------| 
D|-------| 
A|-------| 
E|--12/--| 


Verse: 

G|-----------12-------------------12----------------12------------| 
D|------7/14-----------------7/14--------------7/14---------------| 
A|-0--0---------x-3-x-3-0--0----------x-3-0--0---------x-3-x-3-0--| 
E|----------------------------------------------------------------| 

G|--------12--------| 
D|---7/14-----------| 
A|-0---------x-3-0--| 
E|------------------| 

Chorus: 

G|---------| 
D|---------| 
A|---------| 
E|--x-0-5/-| 

Solo: 

G|------------------------------------------------------------------------| 
D|------------------------------------------------------------------------| 
A|------------10---------------------10---------------------10------------| 
E|-0--x--5/12-----x-3--x-3-0--0-5/12-----x-3--x-3-0--0-5/12----x-3--x-3-0-| 

G|-----------------------| 
D|-----------------------| 
A|--------10-------------| 
E|-0-5/12-----x-3--x-3-0-| 

G|-----------------------------------------------| 
D|-----------------------------------------------| 
A|-----------------------------------------------| 
E|--0--10--0--9--0--7--0--5--0--4--0--3--0--2--0-| 

	  

there isn't a video lesson for this song

request
Search
auto scroll beats size up size down change color hide chords drawings
tab show chords e-chords YouTube Clip e-chords hide all tabs e-chords go to top tab