Red Hot Chili Peppers

home > Red Hot Chili Pepp...

Fortune Faded Bass Tab

Red Hot Chili Peppers

Difficulty: BeginnerBeginner

by mneto

tuner correct add songbook print version text version save to e-mail
chordsukulelecavacokeyboardtabbassdrummharmonicsflute Guitar Pro
chords

Fortune Faded

Year: 2003 - Album: Greatest Hits

  		Intro(Note 11=eleven 
G:---------------------------------6666666666666666/11111111111111111111111111111111-| 
D:-----------------4444444444444444--------------------------------------------------| 
A:-----------------------------------------------------------------------------------|x1 
E:-2222222222222222------------------------------------------------------------------| 
 
Verse 1 
G:---------------------------------------------------------------------| 
D:---------------------------------------------------------------------| 
A:-2-2-xxxx2-2-xxxx2-2-xxxx2-2-xxxx5-0h5-0h5---0h5-5--0000--0000-------|x8 
E:----------------------------------------------------------------3333-| 
 
Chorus 
G:-----------7~--------------------4~-44-4~--4-4--------------------| 
D:-7~-77-7~------7-5~-55-5~--5-6-7---------------5~--2~------2------| 
A:-------------------------------------------------------5~----4~---|x1 
E:------------------------------------------------------------------| 
 
G:-----------7~--------------------4~-44-4~-------------------------| 
D:-7~-77-7~------7-5~-55-5~--5-6-7----------------------------------| 
A:-------------------------------------------2-2-2---2-2-2----------|x1 
E:------------------------------------------------------------------| 
 
Verse 2 
G:---------------------------------------------------------------------| 
D:---------------------------------------------------------------------| 
A:-2-2-xxxx2-2-xxxx2-2-xxxx2-2-xxxx5-0h5-0h5---0h5-5--0000--0000-------|x5 
E:----------------------------------------------------------------3333-| 
 
Repeat: 
Chorus 
 
Bridge 
G:---------------------------------------------------------------------| 
D:---------------------------------------------------------------------| 
A:-2-2-xxxx2-2-xxxx2-2-xxxx2-2-xxxx5-0h5-0h5---0h5-5--0000--0000-------|x1 
E:----------------------------------------------------------------3333-| 
 
G:---------------------------------------------------------------------| 
D:---------------------------------------------------------------------| 
A:-2-2-xxxx4\2-xxxx4\2-xxxx3\2-xxxx5-0h5-0h5---0h5-5--0000--0000-------|x1 
E:----------------------------------------------------------------3333-| 
 
G:---------------------------------6666666666666666/11111111111111111111111111111111-| 
D:-----------------4444444444444444--------------------------------------------------| 
A:-----------------------------------------------------------------------------------|x1 
E:-2222222222222222------------------------------------------------------------------| 
 
Chorus 
G:-----------7~--------------------4~-44-4~--4-4--------------------| 
D:-7~-77-7~------7-5~-55-5~--5-6-7---------------5~--2~------2------| 
A:-------------------------------------------------------5~----4~---|x1 
E:------------------------------------------------------------------| 
 
G:-----------7~--------------------4~-44-4~--4-4--------------------| 
D:-7~-77-7~------7-5~-55-5~--5-6-7---------------5~--2~------2------| 
A:-------------------------------------------------------5-4---4~---|x1 
E:------------------------------------------------------------------| 
 
G:-----------7~--------------------4~-44-4~--4-4----------------------| 
D:-7~-77-7~------7-5~-55-5~--5-6-7---------------5~--2~--0h2h4-5-2~---| 
A:--------------------------------------------------------------------|x1 
E:--------------------------------------------------------------------| 
 
G:-----------7~--------------------4~-44-4~-------------------------| 
D:-7~-77-7~------7-5~-55-5~--5-6-7----------------------------------| 
A:-------------------------------------------2-2-2------------------|x1 
E:------------------------------------------------------------------| 
 
 

	  

Search Paypal
auto scroll beats size up size down change color hide chords drawings
tab show chords e-chords YouTube Clip e-chords hide all tabs e-chords go to top tab