Red Hot Chili Peppers

home > Red Hot Chili Pepp...

Don't Forget Me Bass Tab

Red Hot Chili Peppers

Difficulty: ExpertExpert

by Windows

tuner correct add songbook print version text version save to e-mail
chordsukulelecavacokeyboardtabbassdrumsharmonicsflute Guitar Pro
chords

Don't Forget Me

Year: 2002 - Album: By The Way

  		you start with: 
 
Slow part x12  
 
G||-----9---xxxx---5--xxxx--12--xxxx---7--xxxx-----------------|  
D||-----7---xxxx---3--xxxx--10--xxxx---5--xxxx-----------------|  
A||------------------------------------------------------------|  
E||------------------------------------------------------------|  
 
Heavier part  
1st time round  
G||-------------------------------------------------------------|  
D||--77.7-9-10-9---33--3-5-7-5---10-10--10-12-14-12----55-5-7-9-|  
A||-------------------------------------------------------------|  
E||-------------------------------------------------------------|  
 
After that  
G||---------------------------------------------------------|  
D||--77.7-9-10-9---33--3-5-7-5---10-10--10-12-14-14-12-10-9-|  
A||---------------------------------------------------------|  
E||---------------------------------------------------------|  
 
Go back to the slow part x6  
 
Repeat both parts (of the heavy part) x2  
 
Return to the slow part x4  
 
End on  
G||---9-------------------------------------------------|  
D||---7-xxx---------------------------------------------|  
A||-----------------------------------------------------|  
E||-----------------------------------------------------|  
 

	  

Search Paypal
auto scroll beats size up size down change color hide chords drawings
tab show chords e-chords YouTube Clip e-chords hide all tabs e-chords go to top tab