Red Hot Chili Peppers

home > Red Hot Chili Pepp...

Brandy (You're a Fine Girl) Bass Tab

Red Hot Chili Peppers

Difficulty: BeginnerBeginner

by mneto

tuner correct add songbook print version text version save to e-mail
chordsukulelecavacokeyboardtabbassdrumsharmonicsflute Guitar Pro
chords

Brandy (You're a Fine Girl)

  		INTRO 
G-|--------6-4---------------------6-4-----9-8-6------------------------------|- 
D-|------------6------7-6-4------------6---------8-6--------------------------|- 
A-|-4--4-4------------------4--4-4-------------------5-3----------------------|- 
E-|--------------5--5--------------------5---------------7--7-7-7-7-7-7-7-7-7-|- 
 
 
VERSO 
G-|--------------------------------------------------------------------|- 
D-|---------------------------------6--6-4-6------4-2------------------|- 
A-|----------------------------7--7----------4--4-----4-------5-5------|- 
E-|-5--5-4--4-4-2-4-5-7--7--7---------------------------5--5------5--5-|- 
 
G-|---------------------------------------------|- 
D-|------6--6-4-6------4-2----------------2-4-2-|- 
A-|-7--7----------4--4-----4------------2-------|- 
E-|--------------------------5--5--5--5---------|- 
 
G-|--------------------------------------|- 
D-|------6--6-4-6------4-2---------------|- 
A-|-7--7----------4--4-----4-------5-5---|- 
E-|--------------------------5--5------5-|- 
 
G-|-------------------------------------------------|- 
D-|------6--6-4-6------4-2--------------------------|- 
A-|-7--7----------4--4-----4------------------------|- 
E-|--------------------------5--5--5--5-5-5-5-5-5-5-|- 
 
 
Refrão 
G-|--------6-4---------------------6-4-----9-8-6------------------------------|- 
D-|------------6------7-6-4------------6---------8-6--------------------------|- 
A-|-4--4-4------------------4--4-4-------------------5-3----------------------|- 
E-|--------------5--5--------------------5---------------7--7-7-7-7-7-7-7-7-7-|- 
 
G-|----------------------------|- 
D-|----------------------------|- 
A-|---7-5----------------------|- 
E-|-5-----4--4-4-2-4-5-7--7--7-|- 
 
 
VERSO 
G-|--------------------------------------------------------------------|- 
D-|---------------------------------6--6-4-6------4-2------------------|- 
A-|----------------------------7--7----------4--4-----4-------5-5------|- 
E-|-5--5-4--4-4-2-4-5-7--7--7---------------------------5--5------5--5-|- 
 
G-|---------------------------------------------|- 
D-|------6--6-4-6------4-2----------------2-4-2-|- 
A-|-7--7----------4--4-----4------------2-------|- 
E-|--------------------------5--5--5--5---------|- 
 
G-|--------------------------------------|- 
D-|------6--6-4-6------4-2---------------|- 
A-|-7--7----------4--4-----4-------5-5---|- 
E-|--------------------------5--5------5-|- 
 
G-|-------------------------------------------------|- 
D-|------6--6-4-6------4-2--------------------------|- 
A-|-7--7----------4--4-----4------------------------|- 
E-|--------------------------5--5--5--5-5-5-5-5-5-5-|- 
 
 
Refrão 
G-|--------6-4-----------------------6-4-----9-8-6------------------------------|- 
D-|------------6------7-6-4--------------6---------8-6--------------------------|- 
A-|-4--4-4------------------7-4--4-4-------------------5-3----------------------|- 
E-|--------------5--5----------------------5---------------7--7-7-7-7-7-7-7-7-7-|- 
 
G-|------------------------------|- 
D-|------------------------------|- 
A-|---7-5------------------------|- 
E-|-5-----4--4-4-2-4-5-7-7-7-7-7-|- 
 
G-|-------------------------------------------------------2h4-2-------|- 
D-|----------------------------------------------2--------------4-2---|- 
A-|-4--4-0-4-4-2--2-2-2--2-2-0-2-0--0-0-0--0-0-0---0--0-0-----------7-|- 
E-|-------------------------------------------------------------------|- 
 
G-|-------------------------------------------------------|- 
D-|-------------------------2-----------------2-----------|- 
A-|-4--4-0-4-4-2--2-2-2-2h4---4-2-4-0--0--0-0---4-2--2--2-|- 
E-|-------------------------------------------------------|- 
 
G-|---------------------------------------------------------|- 
D-|---------------------------------------------------------|- 
A-|-4--4--4-4--4-5--5-5--5-5-5-5-5-4------------------------|- 
E-|----------------------------------5--5-5-5-5-5-5-5-5-5-5-|- 
 
G-|----------------------------|- 
D-|----------------------------|- 
A-|---7-5----------------------|- 
E-|-5-----4--4-4-2-4-5-7--7--7-|- 
 
 
VERSO 
G-|--------6-4-----------------------6-4-----9-8-6------------------------------|- 
D-|------------6------7-6-4--------------6---------8-6--------------------------|- 
A-|-4--4-4------------------7-4--4-4-------------------5-3----------------------|- 
E-|--------------5--5----------------------5---------------7--7-7-7-7-7-7-7-7-7-|- 
 
G-|------------------------------|- 
D-|------------------------------|- 
A-|---7-5------------------------|- 
E-|-5-----4--4-4-2-4-5-7-7-7-7-7-|- 
G-|--------6-4-----------------------6-4-----9-8-6------------------------------|- 
D-|------------6------7-6-4--------------6---------8-6--------------------------|- 
A-|-4--4-4------------------7-4--4-4-------------------5-3----------------------|- 
E-|--------------5--5----------------------5---------------7--7-7-7-7-7-7-7-7-7-|- 
 
G-|---------------------------------|- 
D-|---------------------------------|- 
A-|---7-5---------------------------|- 
E-|-5-----4--4-4-2--4-5-7--7--7--0~-|- 
 

	  

Search Paypal
auto scroll beats size up size down change color hide chords drawings
tab show chords e-chords YouTube Clip e-chords hide all tabs e-chords go to top tab