Red Hot Chili Peppers

home > Red Hot Chili Pepp...

Around The World Bass Tab

Red Hot Chili Peppers

Difficulty: AdvancedAdvanced

by meta11eir0

tuner correct add songbook print version text version save to e-mail
chordsukulelecavacokeyboardtabbassdrummharmonicsflute Guitar Pro
chords

Around The World

Year: 1999 - Album: Californication

  		Red Hot Chili Peppers 
Around The World 
 
Intro 
G|-----------------|-----------------| 
D|-----------------|-----------------| 
A|-----------------|-----------------| 
E|-0---------------|-0---0---0---0---| 
 
G|-------------------------------------------------| 
D|-12h14-14-12h14-14-12h14-14-12h14p12-------------| 
A|-------------------------------------14-13-12----| 
E|----------------------------------------------15-| 
							(Repeat 4x) 
G|-------------------------------------------------| 
D|-12h14-14-12h14-14-12h14-14-12-------------------| 
A|-------------------------------14-13-12-10-------| 
E|-------------------------------------------12-10-| 
 
G|-----------| 
D|-----------| 
A|-----------| 
E|-3/10pausa-| 
 
 
Verso 1 
 
G|---10-12-----9-10-|---10-12-----10-9---| 
D|------------------|------------------8-| 
A|------------------|--------------------| 
E|-3-------1-3------|-3-------1-3--------| 
 
G|---10-12-----9-10-|---10-12---------------| 
D|------------------|---------------3-2-----| 
A|------------------|-------------1-----3-1-| 
E|-3-------1-3------|-3-------1-3-----------| 
 
G|---10-12-----9-10-|---10-12-----------| 
D|------------------|-------------------| 
A|------------------|---------3^^^------| 
E|-3-------1-3------|-3------------6^^^-| 
 
G|---10-12-----9-10-|---10-12-------------| 
D|------------------|-----------------3-5-| 
A|------------------|-------------1-5-----| 
E|-3-------1-3------|-3-------1-3---------| 
 
 
Refrao 1 
 
G|---13-------------------------------------| 
D|-6----10-13-------12-12------10-----------| 
A|------------10-10-------8-11--------10-10-| 
E|--------------------------------8-8-------| 
 
G|----13-------------------------------------------------| 
D|-------10-13-------12-12------10-----------------------| 
A|-11----------10-10-------8-11--------10-10/19x--------| 
E|---------------------------------8-8------------3break-| 
 
 
Verso 2 
 
G|---10-12-----9-10-|---10-12-----10-9---| 
D|------------------|------------------8-| 
A|------------------|--------------------| 
E|-3-------1-3------|-3-------1-3--------| 
 
G|---10-12-----9-10-|---10-12-----------------| 
D|------------------|---------------3-2-3-2-3-| 
A|------------------|-------------1-----------| 
E|-3-------1-3------|-3-------1-3-------------| 
 
G|---10-12-----9-10-|---10-12-----------| 
D|------------------|-------------------| 
A|------------------|---------3^^^------| 
E|-3-------1-3------|-3------------6^^^-| 
 
G|---10-12-----9-10-|---10-12---------| 
D|------------------|---------------3-| 
A|------------------|-------------1---| 
E|-3-------1-3------|-3-------1-3-----| 
 
 
Refrao 2 
 
G|---13-------------------------------------| 
D|-6----10-13-------12-12------10-----------| 
A|------------10-10-------8-11--------10-10-| 
E|--------------------------------8-8-------| 
 
G|----13-------------------------------------------| 
D|-------10-13-------12-12------10-----------------| 
A|-11----------10-10-------8-11--------10-10/19^^^-| 
E|---------------------------------8-8-------------| 
 
 
Interlúdio 
 
G|-------------------------------------------------| 
D|-12h14-14-12h14-14-12h14-14-12h14p12-------------| 
A|-------------------------------------14-13-12----| 
E|----------------------------------------------15-| 
							 
G|-------------------------------------------------| 
D|-12h14-14-12h14-14-12h14-14-12-------------------| 
A|-------------------------------14-13-12-10-------| 
E|-------------------------------------------12-10-| 
 
G|---10-12-----9-10-|---10-12---12-10-------| 
D|------------------|-----------------12-10-| 
A|------------------|-----------------------| 
E|-3-------1-3------|-3---------------------| 
 
 
Verso 3 
 
G|---10-12-----9-10-|---10-12-----10-9---| 
D|------------------|------------------8-| 
A|------------------|--------------------| 
E|-3-------1-3------|-3-------1-3--------| 
 
G|---10-12-----9-10-|---10-12---------------| 
D|------------------|---------------3-2-----| 
A|------------------|-------------1-----3-1-| 
E|-3-------1-3------|-3-------1-3-----------| 
 
G|---10-12-----9-10-|---10-12-----------| 
D|------------------|-------------------| 
A|------------------|---------3^^^------| 
E|-3-------1-3------|-3------------6^^^-| 
 
G|---10-12-----9-10-|----------------------------| 
D|------------------|-------------------0---3-5--| 
A|------------------|-----------1---1-3---3------| 
E|-3-------1-3------|-3-1-0-1-3---3--------------| 
 
 
Refrao 3 
 
G|-------8-|--------------------|-------------|---5-5-----------| 
D|-6---6---|---5--5-------5---5-|-3-3-5-6-5-3-|-----------------| 
A|---6-----|-5--5---------------|-------------|-3-------3---3---| 
E|---------|--------3-3-3---3---|-------------|-------3---3---6-| 
 
G|---------------|-----------|-------------------|--------------0-| 
D|---------------|-----------|-----------------1-|--------1-1-3---| 
A|-------6-5-3---|-----------|-------------1-1---|-3-3--3---------| 
E|-4-0-4-------6-|-3--3-3--3-|-1-1-3-3-4-4-------|----------------| 
 
G|-------|----------------|-------|-----------------| 
D|-6---6-|---5---5--------|-3-5-3-|---5-------------| 
A|---6---|-5---5----------|-------|-3---3-3-5-6-5-3-| 
E|-------|---------3-3--3-|-------|-----------------| 
 
G|-----------------|--------|---------------| 
D|-----------------|--------|---3-5-6-5-3-1-| 
A|-------6---------|--------|---------------| 
E|-4-0-4---0-4-0-4-|-3-3--3-|-1-------------| 
 
 
Outro 
G|-----------------| 
D|-2-3-2-----------| 
A|-------5-5-5-5-5-| 
E|-----------------| 
 
G|-----------------------| 
D|-------2-3-2-----------|	(13x) 
A|-0-3-0-------5-5-5-5-5-| 
E|-----------------------| 
 
G|-----------------------------|-------------------------------| 
D|-------2-3-2-----------------|-------2-3-2-------------------| 
A|-0-3-0-------5-5/10-10-10-10-|-0-3-0-------5-5/12-12-12-12x-| 
E|-----------------------------|-------------------------------| 
 

	  

Search Paypal
auto scroll beats size up size down change color hide chords drawings
tab show chords e-chords YouTube Clip e-chords hide all tabs e-chords go to top tab