Ray Charles

home > Ray Charles

What Id Say Bass Tab

Ray Charles

Difficulty: nolevelnolevel

by lucicamargo

tuner correct add songbook print version text version save to e-mail
chordsukulelecavacokeyboardtabbassdrumsharmonicsflute Guitar Pro
chords

What Id Say

  		 Riff 1 
G|-----------------------------------------------------------------| 
D|-------1-3--------1-3--------1-3---------1--3--------------------| 
A|-----3----------3---------3------------3-------------------------| 
E|---1--------1-1--------1-----------1-1---------------------------| 

 Riff 2 
G|--------1-3--------1-3-------1-3--------1--3---------------------| 
D|------3---------3---------3-----------3--------------------------| 
A|----1-------1-1--------1----------1-1----------------------------| 
E|-----------------------------------------------------------------| 
	  

Search Paypal
auto scroll beats size up size down change color hide chords drawings
tab show chords e-chords YouTube Clip e-chords hide all tabs e-chords go to top tab