Rancore

home > Rancore

Jeito Livre Bass Tab

Rancore

Difficulty: EasyEasy

by Acelot

tuner correct add songbook print version text version save to e-mail
chordsukulelecavacokeyboardtabbassdrumsharmonicsflute Guitar Pro
chords

Jeito Livre

  		Intro:
 
F#3|----------------------------------------------------| 
C#3|----------------------------------------------------| 
G#2|---------------5-444444-----------------------------|  (4x) 
C#3|--345--7777777--------------------------------------| 

Verso: 
(Aqui vai água... ela passa.) (até 0:36) 
F#3|----------------------------------------------------| 
C#3|----------------------------------------------------| 
G#2|---------------5-444444-----------------------------|  (8x) 
C#3|--345--7777777--------------------------------------| 

Refrao:  
(Jeito livre...o nosso amor.)  (0:37 - 1:01) 
F#3|----------------------------------------------------| 
C#3|----------------------------------------------------| 
G#2|-------------33333333-------------------------------|  (4x) 
C#3|--555555555-----------------------------------------| 

Intro: 
(1:02 - 1:12) 
F#3|----------------------------------------------------| 
C#3|----------------------------------------------------| 
G#2|---------------5-444444-----------------------------|  (4x) 
C#3|--345--7777777--------------------------------------| 

Verso:  
(Um novo... quando ela passa.) (1:13 - 1:47) 
F#3|----------------------------------------------------| 
C#3|----------------------------------------------------| 
G#2|---------------5-444444-----------------------------|  (11x) 
C#3|--345--7777777--------------------------------------| 
	  

Search Paypal
auto scroll beats size up size down change color hide chords drawings
tab show chords e-chords YouTube Clip e-chords hide all tabs e-chords go to top tab