Ramones

home > Ramones

Strenght to Endure Bass Tab

Ramones

Difficulty: BeginnerBeginner

by Cinho+Punk+182

tuner correct add songbook print version text version save to e-mail
chordsukulelecavacokeyboardtabbassdrumsharmonicsflute Guitar Pro
chords

Strenght to Endure

  		Intro 
|------------------------------| 
|------------------------------| 
|--3-3-3-2-2-2-----------------| 
|---------------5-5-3-5-3-5-0--| 
 
Verse 
|------------------------------| 
|------------------------------| 
|--3-3-3-2-2-2-----------------| 
|---------------5-5-3-5-3-5-0--| 
 
Chorus 
|-------------|-------------|-------------|-------------| 
|-------------|-------------|-------------|-------------| 
|--3-3-3-3-3--|--0-0-0-0-0--|--3-3-3-3-3--|-------------| 
|-------------|-------------|-------------|--3-3-3-3-3--| 
 
|-------------|-------------|-------------|-------------| 
|-------------|-------------|-------------|-------------| 
|--3-3-3-3-3--|--0-0-0-0-0--|-------------|-------------| 
|-------------|-------------|--3-3-3-3-3--|--1-1-1-1-1--| 
 
Solo 
|------------------------------| 
|------------------------------| 
|--3-3-3-2-2-2-----------------| 
|---------------5-5-3-5-3-5-0--| 
 
Outro 
|------------------------| 
|------------------------| 
|--3-3-3-2-2-2-----------| 
|---------------5-5-3-5--| 
 
 
Song-structure: 
 
Intro 4X 
Verse 8X 
Chorus 
Verse 8X 
Chorus 
Solo 4X 
Chorus 
Verse 8X 
Chorus 2X 
Intro  
Outro 
  
  
 
By: [email protected] 

	  

Search Paypal
auto scroll beats size up size down change color hide chords drawings
tab show chords e-chords YouTube Clip e-chords hide all tabs e-chords go to top tab