Ramones

home > Ramones

Sheena Is a Punk Rocker Bass Tab

Ramones

Difficulty: ExpertExpert

by Cinho+Punk+182

tuner correct add songbook print version text version save to e-mail
chordsukulelecavacokeyboardtabbassdrumsharmonicsflute Guitar Pro
chords

Sheena Is a Punk Rocker

  		Intro: 
G |-----------------------| 
D |-----------------------| => 4x 
A |---2/3---3-3-3-3-3-----| 
E |-----------------------| 
 
 
Versos: 
G |-----------------------| 
D |-----------------------|  => 4x 
A |---2/3---3-3-3-3-3-----| 
E |-----------------------| 
Well the kids are all hopped up and ready to go  
They're ready to go now 
 
 
G |------------------------------------| 
D |------------------------------------| 
A |------------------------------------| 
E |----2/3?3-3-3-3-3-3-3-3-3-3---------| 
They got their surfboards  
And they're going to the discotheque au go-go 
 
 
 
G |-----------------------| 
D |-----------------------|  => 2x 
A |---2/3---3-3-3-3-3-----| 
E |-----------------------| 
 
 
G |----------------------------------------------------| 
D |----------------------------------------------------| =>2x 
A |----------------------------------------------------| 
E |--5-5-5-5-5-5-5-5-5----1-1-1-1-1-1-1-1-1-1----------| 
But she just couldn't stay, she had to break away  
 
 
 
G |-----------------------| 
D |-----------------------|  => 2x 
A |---2/3---3-3-3-3-3-----| 
E |-----------------------| 
Well New York City really has is all, 
 
 
G |------------------------------------------------------------------| 
D |------------------------------------------------------------------| 
A |------------------------------------------------------------------| 
E |----2/3?3-3-3-3-3-3-3-3-3-3-3-3-3-3-3-3-3-3-3-3-3-3---------------| 
Oh yeah, oh yeah.... 
 
 
Refrão: 
G |--------------------------------------| 
D |--------------------------------------| =>7x 
A |---3----3-3-3-3-----------------------| 
E |-------------------3-3-3?1-1-1--------| 
Sheena is a punk rocker, Sheena is  
A punk rocker, Sheena is a punk rocker now 
 
 
G |---------------------------------------------------------------------------| 
D |---------------------------------------------------------------------------| 
A |--------------------3-3-3-3-3-3-3------------------------1-1-1-1-1-1-1-1---| 
E |----1-1-1-1-1-1-1----------------------3-3-3-3-3-3-3-3---------------------| 
Well she's a punk punk, a punk rocker  
Punk punk, a punk rocker  
Punk punk, a punk rocker  
Punk punk, a punk rocker 
 
 
Repete desde o começo... 
 
 
 
By: [email protected] 

	  

Search Paypal
auto scroll beats size up size down change color hide chords drawings
tab show chords e-chords YouTube Clip e-chords hide all tabs e-chords go to top tab