Ramones

home > Ramones

Rock 'n Roll Radio Bass Tab

Ramones

Difficulty: nolevelnolevel

by Cinho+Punk+182

tuner correct add songbook print version text version save to e-mail
chordsukulelecavacokeyboardtabbassdrumsharmonicsflute Guitar Pro
chords

Rock 'n Roll Radio

  		Introdução 
G|---------------------------------------------------------------------------------------------------|    
D|---------------------------------------------------------------------------------------------------| 
A|--3---3------------3---3---------------------------------------------------------------------------| 
E|----3---3-3-3-3------3---3-3-3-3---1-2-3-3-3-3---1-2-3-3-3-3---1-2-3-3-3-3---1-2-3-3-3-3---1-2-3333| 
 
   Refrão 
G|---------------------------------------------------------------------------------| 
D|------------------------2-2-5-5-7-7-----4-4-7-7-9-7-5-5--------------------------| 
A|------2-2-5-5-7-5--3-3---------------5-5-----------------7-7-5-5-----------------| x2 
E|-3-3--------------------------------------------------------------7-7------------| 
 
  Verso 
G|----------------------------------------|  
D|----------------------------------------|  
A|------------------------3-3-3-3-5-5-5-5-| x 4  
E|-3-3-3-3-3-3-3-3------------------------|  
 
  Refrão 
G|---------------------------------------------------------------------------------| 
D|------------------------2-2-5-5-7-7-----4-4-7-7-9-7-5-5--------------------------| 
A|------2-2-5-5-7-5--3-3---------------5-5-----------------7-7-5-5-----------------| x2 
E|-3-3--------------------------------------------------------------7-7------------| 
 
  Verso2: 
G|----------------------------------------|  
D|----------------------------------------|  
A|------------------------3-3-3-3-5-5-5-5-| x 4  
E|-3-3-3-3-3-3-3-3------------------------| 
 
G|------------------------------------------------------------|  
D|------------------------------------------------------------|  
A|-3-3-3-3-3-3-3-3--------5-5-5-5-5-5-5-5---------------------| x 2 
E|-----------------------------------------3-3-3-3-3-3-0-0-0-0| 
 
 
G|---------------------------------------------------------------------------------------------------|    
D|---------------------------------------------------------------------------------------------------| 
A|--3---3------------3---3---------------------------------------------------------------------------| 
E|----3---3-3-3-3------3---3-3-3-3---1-2-3-3-3-3---1-2-3-3-3-3---1-2-3-3-3-3---1-2-3-3-3-3---1-2-3333| 
 
   Refrão 
G|---------------------------------------------------------------------------------| 
D|------------------------2-2-5-5-7-7-----4-4-7-7-9-7-5-5--------------------------| 
A|------2-2-5-5-7-5--3-3---------------5-5-----------------7-7-5-5-----------------| x2 
E|-3-3--------------------------------------------------------------7-7------------| 
 
  Verso 
G|----------------------------------------|  
D|----------------------------------------|  
A|------------------------3-3-3-3-5-5-5-5-| x 4  
E|-3-3-3-3-3-3-3-3------------------------| 
 
 
G|------------------------------------------------------------|  
D|------------------------------------------------------------|  
A|-3-3-3-3-3-3-3-3--------5-5-5-5-5-5-5-5---------------------| x 2 
E|-----------------------------------------3-3-3-3-3-3-0-0-0-0| 
 
 
G|---------------------------------------------------------------------------------------------------|    
D|---------------------------------------------------------------------------------------------------| 
A|--3---3------------3---3---------------------------------------------------------------------------| 
E|----3---3-3-3-3------3---3-3-3-3---1-2-3-3-3-3---1-2-3-3-3-3---1-2-3-3-3-3---1-2-3-3-3-3---1-2-3333| 
  
  
 
By: [email protected] 

	  

Search Paypal
auto scroll beats size up size down change color hide chords drawings
tab show chords e-chords YouTube Clip e-chords hide all tabs e-chords go to top tab