Ramones

home > Ramones

Rock n' Rol High School Bass Tab

Ramones

Difficulty: BeginnerBeginner

by Cinho+Punk+182

tuner correct add songbook print version text version save to e-mail
chordsukulelecavacokeyboardtabbassdrumsharmonicsflute Guitar Pro
chords

Rock n' Rol High School

  		Intro/ Post-Chorus 
G-------------------------------------------------------------------- 
D-------------------------------------------------------------------- 
A--5-5-5-5-5-5-5-5-5-5-5-5------------------------------------------- 
E-------------------------------------------------------------------- 
 
Verse 
G-------------------------------------------------------------------- 
D-------------------------------------------------------------------- 
A-5-5-5-5-5-5-5-5--5-5-5-5-5-5-5-5-------------------5-5-5-5-5-5-5-5- 
E-----------------------------------3-3-3-3-3-3-3-3------------------ 
 
Pre-Chorus 
G-------------------------------------------------------------------- 
D-------------------------------------------------------------------- 
A-------------------------------------------------------------------- 
E--7-7-7-7-3-3-3-3-7-7-7-7-3-3-3-3----------------------------------- 
 
Chorus 
G-------------------------------------------------------------------- 
D-------------------------------------------------------------------- 
A--5-5--------------------------------------------------------------- 
E------7-7-3-3-5-5--------------------------------------------------- 
 
Fun Fun... 
G-------------------------------------------------------------------- 
D-------------------------------------------------------------------- 
A---------5-5-5-5---------5-5-5-5---------5-5------------------------ 
E-5-5-5-5---------5-5-5-5---------3-3-3-3-----7-7-------------------- 
  
  
 
By: [email protected] 

	  

Search Paypal
auto scroll beats size up size down change color hide chords drawings
tab show chords e-chords YouTube Clip e-chords hide all tabs e-chords go to top tab