Ramones

home > Ramones

My Sharona Bass Tab

Ramones

Difficulty: ExpertExpert

by europeu

tuner correct add songbook print version text version save to e-mail
chordsukulelecavacokeyboardtabbassdrumsharmonicsflute Guitar Pro
chords

My Sharona

  		>Main Riff: 
 
G|-------------------------|------------------------| 
D|-------5-5---5---5-----5-|-------5-5---5----------|  
A|-------------------------|---------------3--1-3-1-| 
E|-2h3-3-----3---3---3-3---|-2h3-3-----3------------| 
 
 
 
 
 
Intro: 
G|-------------------------|------------------------| 
D|--------5-5---5---5-----5|-------5-5---5----------| 
A|-------------------------|---------------3--1-3-1-| 
E|-10\3-3-----3---3---3-3--|-2h3-3-----3------------| 
 
G|-------------------------|------------------------| 
D|-------5-5---5---5-----5-|-------5-5---5----------|  
A|-------------------------|---------------3--1-3-1-| 
E|-2h3-3-----3---3---3-3---|-2h3-3-----3------------| 
 
 
 
Verse: 
G|-------------------------|------------------------| 
D|-------5-5---5---5-----5-|-------5-5---5----------| x2 
A|-------------------------|---------------3--1-3-1-| 
E|-2h3-3-----3---3---3-3---|-2h3-3-----3------------| 
 
G|-----------------------------------------------------------| 
D|-----5-5-----5-5-----5-5-----5--------8-8-----8-8-----8----| 
A|-----------------------------------------------------------| 
E|-3-3-----3-3-----3-3-----3-3---3/6--6-----6-6-----6-6----6-| 
 
G|--------------------| 
D|--------------------| 
A|---------6--6--6-8--| 
E|-6/8--8-------------| 
 
 
 
Interlude: 
G|--------------------------------------------| 
D|--------------------------3-5---5---5-----5-| x2 
A|---------6--6--8-6-8------------------------| 
E|-6/8--8---------------3-3-----3---3---3-3---| 
 
G|--------------------------------------------| 
D|--------------------------------------------| 
A|---------6--6--8-6-8--5-5-5-5-5-5-5-5-5-5-5-| 
E|-6/8--8-------------------------------------| 
 
 
 
Solo part: 
G|---------0/5----5h7-5h7-5h7-5-----------------------| 
D|------------------------------7---------------------| 
A|-3~------------------------------3------------------| 
E|------------------------------------3-3--1-1--1-1-3-| 
 
G|----------------------| 
D|----------------------| repeat several times 
A|--3-------------------| 
E|-----3-3--1-1--1-1-3--| 
 
its very easy!! :} 
 
 

	  

Search Paypal
auto scroll beats size up size down change color hide chords drawings
tab show chords e-chords YouTube Clip e-chords hide all tabs e-chords go to top tab