Ramones

home > Ramones

Judy Is a Punk Bass Tab

Ramones

Difficulty: nolevelnolevel

by Cinho+Punk+182

tuner correct add songbook print version text version save to e-mail
chordsukulelecavacokeyboardtabbassdrumsharmonicsflute Guitar Pro
chords

Judy Is a Punk

  		G--------------------------------------------------------------------------- 
D--------------------------------------------------------------------------- 
A-6-6-6-6-6-6-6-6-6-6-6-6-6-6-6-6-6-6-6-6-6-6-6----------------------------- 
E-----------------------------------------------------------------6-6-6-6-6- 
 
6-6-6-6-6-6-6-6-6-6 
  
Something like that, I'm too lazy to figure out the exact timing 
Chorus 
G------------------------------------------ 
D------------------------------------------ 
A------------------------------------------ 
E4-4-4-4-4-4-4-4-6-6-6-6-6-6-6-6-----------    do that a bunch of times 
  
"2nd verse same as...." and "3rd verse diferent from the first 
G----------------------------------- 
D----------------------------------- 
A----------------------------------- 
E-6-6-6-6-6-6-6-6-6-6-6-6-6-6-6-6-6- 
  
The "ooooooh" part 
G---------------------------------------- 
D---------------------------------------- 
A-6-6-6-6-6-6-6-6------------------------ 
E------------------------6-6-6-6-6-6-6-6- 
  
  
 
By: [email protected] 

	  

Search Paypal
auto scroll beats size up size down change color hide chords drawings
tab show chords e-chords YouTube Clip e-chords hide all tabs e-chords go to top tab