Ramones

home > Ramones

I Believe In Miracles Bass Tab

Ramones

Difficulty: nolevelnolevel

by Baixista%5Frp

tuner correct add songbook print version text version save to e-mail
chordsukulelecavacokeyboardtabbassdrumsharmonicsflute Guitar Pro
chords

I Believe In Miracles

(Dee Dee Ramone/Daniel Rey)

  		E------------2-2--3-3-3-3-----      ( 
A-2-2-2-2-----------------------      )      3 
D-----------------------------2-2-     (    vezes 
G----------------------------------      ) 
 
E-5-5-5-5-5555--------------- 
A---------------------------------- 
D---------------------2-2--------- 
G----------------------------------- 
 
E------------2-2--3-3-3-3-----      ( 
A-2-2-2-2-----------------------      )      3 
D-----------------------------2-2-     (    vezes 
G----------------------------------      ) 
 
E-5-5-5-5-5555--------------- 
A---------------------------------- 
D---------------------2-2--------- 
G----------------------------------- 
 
      E-7-7-7-7-7-5-5-5-5-5-3-3-3-3-3-(3-2-3-5) <--O parenteses eh opicional 
Re  A------------------------------------------------------ 
fro D------------------------------------------------------ 
      G------------------------------------------------------ 
 
E------------2-2--3-3-3-3-----      ( 
A-2-2-2-2-----------------------      )      3 
D-----------------------------2-2-     (    vezes 
G----------------------------------      ) 
 
E-5-5-5-5-5555--------------- 
A---------------------------------- 
D---------------------2-2--------- 
G----------------------------------- 
 
      E-7-7-7-7-7-5-5-5-5-5-3-3-3-3-3-(3-2-3-5) <--O parenteses eh opicional 
Re  A------------------------------------------------------ 
fro D------------------------------------------------------ 
      G------------------------------------------------------ 
 
E-5-5-5-5-5-5-5-5-3-3-3-3-3-3-3-3-5-5-5-5-5-5-5-5-33333333-55555555 
A------------------------------------------------------------------------------------------------- 
D------------------------------------------------------------------------------------------------- 
G------------------------------------------------------------------------------------------------- 
 
 
E-7-7-7-7-7-5-5-5-5-5-3-3-3-3-3-(3-2-3-5) <--O parenteses eh opicional 
A------------------------------------------------------ 
D------------------------------------------------------ 
G------------------------------------------------------ 
 
               __                      __  __   __  
ANDR   |__| \    / |\ | | /     |__| |   |  |   \ | / 
               |     |__|  | \| | \     | \\  |__|  \__ | \ 

	  

Search Paypal
auto scroll beats size up size down change color hide chords drawings
tab show chords e-chords YouTube Clip e-chords hide all tabs e-chords go to top tab