Ramones

home > Ramones

Do You Wanna Dance? Bass Tab

Ramones

Difficulty: nolevelnolevel

by Cinho+Punk+182

tuner correct add songbook print version text version save to e-mail
chordsukulelecavacokeyboardtabbassdrumsharmonicsflute Guitar Pro
chords

Do You Wanna Dance?

  		Versos: 
G:-------------------------------------------------------------------| 
D:-------------------------------------------------------------------| 
A:----------5-5-5-5---------5-5-5-5---------7-7-7-7------------------| 
E:--5-5-5-5---------5-5-5-5---------5-5-5-5---------5-5-5-5-5-5-5-5--| 
 
Refrao: 
G:-------------------------------------------------------------------| 
D:-------------------------------------------------------------------| 
A:----------5-5-5-5---------5-5-5-5---------7-7-7-7------------------| 
E:--5-5-5-5---------5-5-5-5---------5-5-5-5---------5-5-5-5-5-5-5-5--| 
 
G:-------------------| 
D:-------------------| 
A:--7-7-7-7-7-7-7-7--| 
E:-------------------| 
 
Final da música: 
G:-------------------------------------------------------------------| 
D:-------------------------------------------------------------------| 
A:--7-7-7-7-7-7-7-7-7-7----------------------------------------------| 
E:----------------------5--------------------------------------------| 
  
  
 
By: [email protected] 

	  

Search Paypal
auto scroll beats size up size down change color hide chords drawings
tab show chords e-chords YouTube Clip e-chords hide all tabs e-chords go to top tab