Ramones

home > Ramones

Do You Remember Rock n' Roll Radio Bass Tab

Ramones

Difficulty: nolevelnolevel

by Cinho+Punk+182

tuner correct add songbook print version text version save to e-mail
chordsukulelecavacokeyboardtabbassdrumsharmonicsflute Guitar Pro
chords

Do You Remember Rock n' Roll Radio

  		Riff 1 
G---------------------------------------------------------------------------- 
D---------------------------------------------------------------------------- 
A-3-3------------------33---------------------------------------------------- 
E---3-3-3-3-3-3-3-3-3-3--3-3-3-3-3-3-3-3-3-3-3-3-3-3-1-2--------------------- 
Do that a couple of times then 
 
Riff 2 
G---------------------------------------------------------------------------- 
D--------------2-2-----2-2-5-5-7-7-----4-4-7-7-9-9-5-5----------------------- 
A------2-2-5-5-----3-3-------------5-5-----------------7-7-5-5--------------- 
E-3-3----------------------------------------------------------7-7----------- 
Do that twice 
 
Verse 
G---------------------------------------- 
D---------------------------------------- 
A------------------------3-3-3-3-5-5-5-5- 
E-3-3-3-3-3-3-3-3------------------------ 
 
Chorus: 
G---------------------------------------------------------------------------- 
D---------------------------------5-5-5-5-5-5-5-5---------------------------- 
A-----------------5-5-5-5-5-5-5-5-----------------7-7-7-7-7-7-3-3-3-3-3-3---- 
E-5-5-5-5-5-5-5-5------------------------------------------------------------ 
 
G---------------------------------------------------------------------------- 
D---------------------------------------------------------------------------- 
A-3-3-3-3-3-3-3-3-5-5-5-5-5-5-5-5-10-10-10-10-10-10-10-10-------------------- 
E---------------------------------------------------------5-5-5-5-5-5-5-5---- 
 
G---------------------------------------------------------------------------- 
D-----------------5-5-5-5-5-5-5-5-------------------------------------------- 
A-5-5-5-5-5-5-5-5-----------------7-7-7-7-7-7-7-7-3-3-3-3-3-3-3-3-3-3-3-3-3-- 
E---------------------------------------------------------------------------- 
 
G----------------------------------------- 
D----------------------------------------- 
A-5-5-5-5-5-5-5-5-10-10-10-10-10-10-10-10- 
E----------------------------------------- 
 
 
 
By: [email protected] 

	  

Search Paypal
auto scroll beats size up size down change color hide chords drawings
tab show chords e-chords YouTube Clip e-chords hide all tabs e-chords go to top tab