Rage Against The Machine

home > Rage Against The M...

I'm Housin' Bass Tab

Rage Against The Machine

Difficulty: nolevelnolevel

by Acelot

tuner correct add songbook print version text version save to e-mail
chordsukulelecavacokeyboardtabbassdrummharmonicsflute Guitar Pro
chords

I'm Housin'

Year: 2000 - Album: Renegades

  		
Part 1: 

G|----/12-----------------------------------/12-----------------------| 
D|---------14-13-12------------------------------14-13-12-------------| 
A|------------------14-13--10h12--10h12-------------------14-13\------| 
E|-0-------------------------------------0------------------------0-0-| 

Part 2: 

G|-----------------------------------------| 
D|-----------------------------------------| 
A|--5h7-5h7--5h7-5h7-5h7--5h7-5h7--5h7-5h7-| 
E|-----------------------------------------| 

Part 3: 

G|---------------------------------------------| 
D|---------------------------------------------| 
A|-7---7---7---7-----10\-7---7---7---7-----10/-| 
E|---0---0---0---0-0-------0---0---0---0-0-----| 

Part 4: 

G|--------------------------------------------------| 
D|--------------------------------------------------| 
A|-5h7-5h7------5--5--------5h7-5h7------5--5-------| 
E|----------5h7------7-5-3-----------5h7------7-5-3-| 

Solo: 

G|---------------------------------------------| 
D|---------------------------------------------| 
A|-7---7---7---7-----10\----7---7---7---7-----5| 
E|---0---0---0---0-0----------0---0---0---5-7--| 
	  

Search Paypal
auto scroll beats size up size down change color hide chords drawings
tab show chords e-chords YouTube Clip e-chords hide all tabs e-chords go to top tab