Rage Against The Machine

home > Rage Against The M...

Bombtrack Bass Tab

Rage Against The Machine

Difficulty: AdvancedAdvanced

by pqnino2003

tuner correct add songbook print version text version save to e-mail
chordsukulelecavacokeyboardtabbassdrummharmonicsflute Guitar Pro
chords

Bombtrack

Year: 1992 - Album: Rage Against the Machine

(Zack de la Rocha/ Tom Morello/ Tim Commerford/ Brad Wilk)

  		
Intro: 

G|------------------------------0-----------------------------------| 
D|---2-0---0----------2-0---0-2------2-0---0----------2-0---0-------| 
A|-------2---2-0----------2--------------2---2-0----------2---2-----| 
E|-0-------------3--0--------------0-------------3--0-----------3-2-| 

G|------------------------------0h2p0h2p0---| 
D|---2-0---0----------2-0---0-2-------------| 
A|-------2---2-0----------2-----------------| 
E|-0-------------3--0-----------------------| 

G|-----------------------------------| 
D|----2-0---0---------2-0---0--------| 
A|--------2---2-0---------2---2------| 
E|-0-------------3-0-----------3-2-0-| 

PArt A: 

G|--------------------------------6--5--4--| 
D|-----4---------4-2-----4--------6--5--4--| 
A|--------------------------------4--3--2--| 
E|-0-2---0-2-0-2-----0-2---0-2-0-----------| 

G|--------------------------------6--5--4-| 
D|-----4---------4-2-----4--------6--5--4-| 
A|--------------------------------4--3--2-| 
E|-0-2---0-2-0-2-----0-2---0-2-0----------| 

G|--------------6-| 
D|-----4--------6-| 
A|--------------4-| 
E|-0-2---0-2-0----| 

Parte B: 

G|--------------------------------------------| 
D|--------------------------------4-2---------| 
A|-----------------0------------------4-3-2-0-| 
E|-2-2-0--2-2--2-2-----2-2-0--2-0-------------| (7xx) 

G|------------| 
D|------------| 
A|------------| 
E|-2-2-0--2-2-| 

Chorus: 

G|--------------------------------6--5--4-| 
D|-----4---------4-2-----4--------6--5--4-| 
A|--------------------------------4--3--2-| 
E|-0-2---0-2-0-2-----0-2---0-2-0----------| (3x) 

G|--------------------------------6-| 
D|-----4---------4-2-----4--------6-| 
A|--------------------------------4-| 
E|-0-2---0-2-0-2-----0-2---0-2-0----| 

Bridge: 

G|--------------------------------------------------------------| 
D|--------------------------------------------------------------| 
A|--------------------------------------------------------------| 
E|-0-0-0-0-0-0-0-0-0-0-0-0-0-0-0-0-0-0-0-0-0-0-0-0-0-0-0-0-0-0-0| 

Solo: 

G|------------------------------------------------------| 
D|------------------------------------------------------| 
A|---------0--------------------0----------4-0-3-0-2-0--| 
E|-2-0-2-0---2-0-2-0-2--2-0-2-0---2-0-2-0---------------| (4x) 

	  

Search Paypal
auto scroll beats size up size down change color hide chords drawings
tab show chords e-chords YouTube Clip e-chords hide all tabs e-chords go to top tab