Radkey

Parade It

Radkey

bass nolevel nolevel

by  JOAOEWERTON

save to print version add songbook text version e-mail correct tuner
chordsukulelecavacokeyboardtabbassdrumsharmonicaflute Guitar Pro
close

there isn't a video lesson for this song

chords

Parade It

	  		
Verse 

 | 1 - 2 - 3 - 4 - | 1 - 2 - 3 - 4 - | 1 - 2 - 3 - 4 - | 1 - 2 - 3 - 4 - | 
F|-----------------|-----------------|-----------------|-----------------| 
C|-----------------|-----------4-----|-----------------|-----------------| 
G|-6-6-6-6-6-6-6-6-|-6-6-6-6-6---6-4-|-----------------|-----------------| 
C|-----------------|-----------------|-4-4-4-4-4-4-4-4-|-2-2-2-2-2---1---| x3 

Chorus 

 | 1 - 2 - 3 - 4 - | 1 - 2 - 3 - 4 - | 1 - 2 - 3 - 4 - | 1 - 2 - 3 - 4 - | 
F|-----------------|-----------------|-----------------|-----------------| 
C|-----------------|-----------------|-----------------|-----------------| 
G|-6-6-6-6-6-6-6-6-|-6-6-6-6-6-6-6-6-|-----------------|-----------------| 
C|-----------------|-----------------|-2-2-2-2-2-2-2-2-|-4-4-4-4-4-4-4-4-| x4 

Bridge 

 | 1 - 2 - 3 - 4 - | 1 - 2 - 3 - 4 - | 1 - 2 - 3 - 4 - | 1 - 2 - 3 - 4 - | 
F|-----------------|-----------------|-----------------|-----------------| 
C|-----------------|-----------4-----|-----------------|-----------------| 
G|-6-6-6-6-6-6-6-6-|-6-6-6-6-6---6-4-|-----------------|-----------------| 
C|-----------------|-----------------|-4-4-4-4-4-4-4-4-|-2-2-2-2-2---1---| 

Verse 

 | 1 - 2 - 3 - 4 - | 1 - 2 - 3 - 4 - | 1 - 2 - 3 - 4 - | 1 - 2 - 3 - 4 - | 
F|-----------------|-----------------|-----------------|-----------------| 
C|-----------------|-----------4-----|-----------------|-----------------| 
G|-6-6-6-6-6-6-6-6-|-6-6-6-6-6---6-4-|-----------------|-----------------| 
C|-----------------|-----------------|-4-4-4-4-4-4-4-4-|-2-2-2-2-2---1---| x3 

Chorus 

 | 1 - 2 - 3 - 4 - | 1 - 2 - 3 - 4 - | 1 - 2 - 3 - 4 - | 1 - 2 - 3 - 4 - | 
F|-----------------|-----------------|-----------------|-----------------| 
C|-----------------|-----------------|-----------------|-----------------| 
G|-6-6-6-6-6-6-6-6-|-6-6-6-6-6-6-6-6-|-----------------|-----------------| 
C|-----------------|-----------------|-2-2-2-2-2-2-2-2-|-4-4-4-4-4-4-4-4-| x4 

Guitar solo 

 | 1 - 2 - 3 - 4 - | 1 - 2 - 3 - 4 - | 1 - 2 - 3 - 4 - | 1 - 2 - 3 - 4 - | 
F|-----------------|-----------------|-----------------|-----------------| 
C|-----------------|-----------4-----|-----------------|-----------------| 
G|-6---6-4h6-6---6-|-6-6---4-6---6-4-|-----------------|-----------------| 
C|-----------------|-----------------|-2---2--22--2--4-|---4-2--44-2-4-4-| x2 

 | 1 - 2 - 3 - 4 - | 1 - 2 - 3 - 4 - | 1 - 2 - 3 - 4 - | 1 - 2 - 3 - 4 - | 
F|-----------------|-----------------|-----------------|-----------------| 
C|-----------------|-----------4-----|-----------------|-----------------| 
G|-6---6-4h6-6---6-|-6-6---4-6---6-4-|-----------------|-----------------| 
C|-----------------|-----------------|-2-2-2-2-2-2-2-2-|-4-4-4-4-4-4-4-4-| 

 | 1 - 2 - 3 - 4 - | 1 - 2 - 3 - 4 - | 1 - 2 - 3 - 4 - | 1 - 2 - 3 - 4 - | 
F|-----------------|-----------------|-----------------|-----------------| 
C|-----------------|-----------4-----|-----------------|-----------------| 
G|-6-6-6-6-6-6-6-6-|-6-6-6-6-6---6-4-|-----------------|-----------------| 
C|-----------------|-----------------|-4-4-4-4-4-4-4-4-|-2-2-2-2-2---1---| 

Verse 

 | 1 - 2 - 3 - 4 - | 1 - 2 - 3 - 4 - | 1 - 2 - 3 - 4 - | 1 - 2 - 3 - 4 - | 
F|-----------------|-----------------|-----------------|-----------------| 
C|-----------------|-----------4-----|-----------------|-----------------| 
G|-6-6-6-6-6-6-6-6-|-6-6-6-6-6---6-4-|-----------------|-----------------| 
C|-----------------|-----------------|-4-4-4-4-4-4-4-4-|-2-2-2-2-2---1---| x2 

 | 1 - 2 - 3 - 4 - | 1 - 2 - 3 - 4 - | 1 - 2 - 3 - 4 - | 1 - 2 - 3 - 4 - | 
F|-----------------|-----------------|-----------------|-----------------| 
C|-----------------|-----------4-----|-----------------|-----------------| 
G|-6-6-6-6-6-6-6-6-|-6-6-6-6-6---6-4-|-----------------|-----------------| 
C|-----------------|-----------------|-4-4-4-4-4-4-4-4-|-2-------2---1---| 

Chorus 

 | 1 - 2 - 3 - 4 - | 1 - 2 - 3 - 4 - | 1 - 2 - 3 - 4 - | 1 - 2 - 3 - 4 - | 
F|-----------------|-----------------|-----------------|-----------------| 
C|-----------------|-----------------|-----------------|-----------------| 
G|-6-6-6-6-6-6-6-6-|-6-6-6-6-6-6-6-6-|-----------------|-----------------| 
C|-----------------|-----------------|-2-2-2-2-2-2-2-2-|-4-4-4-4-4-4-4-4-| x4 

 | 1 - 2 - 3 - 4 - | 
F|-----------------| 
C|-----------------| 
G|-6~~~~~~~~~~~~~~~| 
C|-----------------| 

*********************************** 
| h   Hammer-on 
| ~   Vibrato 
*********************************** 
		  

See also:

bass Deep Purple - When a Blind man cries bass Deep Purple - Smoke On The Water bass Deep Purple - Ted The Mechanic bass Deep Purple - Smoke On The Waterr bass Deep Purple - Into The Fire bass Deep Purple - Smoke On The Water (ver. 2)
e-chords

Other versions:

bass Radkey - Parade It
auto scroll beats size up size down change color hide chords drawings
tab show chords e-chords YouTube Clip e-chords hide all tabs e-chords go to top tab

share with facebook