Queen

home > Queen

We are the champions Bass Tab

Queen

Difficulty: ExpertExpert

by Lissa

tuner correct add songbook print version text version save to e-mail
chordsukulelecavacokeyboardtabbassdrummharmonicsflute Guitar Pro
chords

We are the champions

Year: 1977 - Album: Greatest Hits

(Freddie Mercury)

	  Verse #1: 
     
       *.. *..*..  *  .  .  *  .  .    * . . * . .  *  .  .  *  .  . 
     
G -------+------+----12-12-10-------+------------+----12-12-12-12-12| 
D -6:----|------|-------------13-8--|-10---------|------------------| 
A -8:----|------|-------------------|------------|------------------| 
E -------+------+-------------------+------------+------------------| 
     
     
    * . . * . . *..*.. *..*.. * . . * . .   * . . * . .  * . . * . . 
     
G |------------+------+------+----------7-+-8-----------+-----------| 
D |-10---------|------|------|--------8---|-------------|-----------| 
A |------------|------|------|------------|-------------|-----------| 
E |------------+------+------+------------+-------------+-----------| 
      
     
    * . . * . . *..*..  * . . * . .  * . . * . .  * . . * ..  *..*.. 
                      
G |------------+---8---+------------+-------2----+-----------+------| 
D |------------|-------|------------|------------|-----------|------| 
A |-6----------|-------|-6-----5----|-3----------|-1---------|------| 
E |------------+-------+------------+------------+-----------+------| 
      
     
Chorus: 
      
    *.. * . .  * . . * . .   * . . * . .   * . . * . .   * . . * . . 
          
G |-----5----+-------------+-------------+-------------+------------| 
D |----------|-3---------5-|-7---------7-|-O-----------|------------| 
A |----------|-------------|-------------|---------3-1-|-1-----3----| 
E |----------+-------------+-------------+-------------+------------| 
       
      
    * ..*..  * . . * . .   * . . * . .   * ..*..  *.. *..  *.. *..   
          
G |--------+-------------+-------------+--------+--------+----------|  
D |--------|-------------|-------------|--------|--------|----------| 
A |--------|-O---------O-|-1-------O---|--------|--------|----------| 
E |-1------+-------------+-----------3-+-2------+-3------+-3--------| 
     
     
    * . . * . .   *.. *..   *.. *..  *.. * . .   *.. * . .     
     
G |-------------+---------+--------+-----------+-----------| 
D |-------------|---------|--------|-----3-O---|-----3-O---| 
A |-1---------1-|-1---3---|--------|---------3-|---------3-| 
E |-------------+---------+-1------+-3---------+-4---------|  
      
       
    *.. * . .   * . . *..   *.. *.. 
      
G |-----------+-----------+--------| 
D |-----3-O---|-----------|--------| 
A |-1-------3-|-3-3-------|--------| 5 bars rest..... 
E |-----------+-----------+-1------|    
      
      
 Verse #2: 
     
    * . . *..  *.. *..  *.. *..  *.. *..  * . . *..  *.. *.. *.. *..  
     
G |----------+--------+--------+--------+----------+--------+-------| 
D |-10-------|--------|--------|--------|-10-------|--------|-------| 
A |----------|--------|--------|--------|----------|--------|-------| 
E |----------+--------+-8------+--------+----------+--------|-------| 
      
      
      
    *.. * . .   *.. *..  *.. * . .   *.. * . .   *.. *..   *.. *.. 
          
G |---------7-+-8------+-----8---8-+-----8-8-8-+---------+----------| 
D |-------8---|--------|-----------|-----------|---------|----------| 
A |-----------|--------|-6---------|-6---------|-6-------|-6---5----| 
E |-----------+--------+-----------+-----------+---------+----------| 
      
     
    *.. *..  *.. *.. 
          
G |-----2--+--------| 
D |--------|--------| 
A |-3------|--------| 
E |--------|-1------| 
      
Chorus x2 
	  

there isn't a video lesson for this song

request
Search
auto scroll beats size up size down change color hide chords drawings
tab show chords e-chords YouTube Clip e-chords hide all tabs e-chords go to top tab