Queen

home > Queen

A King Of Magic Bass Tab

Queen

Difficulty: BeginnerBeginner

by Lissa

tuner correct add songbook print version text version save to e-mail
chordsukulelecavacokeyboardtabbassdrumsharmonicsflute Guitar Pro
chords

A King Of Magic

	  fretless bass                 bass-tablature 
G-|-0---0---|----------|---------|---------|---------|---------|---------| 
D-|---0---0-|-0---0----|---------|---------|-0---0---|-7-------|---------| 
A-|---------|---0---05-|-7---7--5|-3-3-----|---0---05|-----5-5-|-3---3--3| 
E-|---------|----------|---7---7-|-----3-3-|---------|---0-----|---3---3-| 
 
G-|----------|-------/4-|---------|------------|---------|-----54--| 
D-|-0---0-4/-|-5---5---5|-0---0---|---4/7-7-10-|-2---4-5-|-7-----70| 
A-|---0------|---5------|---0---05|-6----------|---2-----|---------| 
E-|----------|----------|---------|------------|---------|---------| 
 
G-|-0---0-04-|-------|-------------|-----------------|-0---0--0-|------0---| 
D-|---0------|-0---0-|---2---0-----|---0-0-0-0-0-0---|---0---0--|---24---0-| 
A-|----------|---0---|-3---3---3---|-----------------|----------|-3--------| 
E-|----------|-------|-----------3-|-----------------|----------|----------| 
 
G-|-0---0-4-|---2/7-7-|-----------|---------|---------------|-0-0--0-0--0-----| 
D-|---0-----|-0-------|-5-4-2/5-0-|---------|-------0-/2-/4-|-----------------| 
A-|---------|---------|-----------|-3-2-0---|-2-2/3---------|-------------1/6-| 
E-|---------|---------|-----------|---------|---------------|-----------------| 
 
G-|-------|------| 
D-|-------|------| 
A-|-6-5-3-|-3/12-| 
E-|-------|------| 
 
G-|-0--00-00-0-0-|----------|----------|---------|---------|-----------| 
D-|--------------|-0---0-0--|----------|---------|-0---0---|-----------| 
A-|--------------|---0----0-|-57---7---|-3-3-----|---0---0-|-5/7---5-5-| 
E-|--------------|----------|----7---7-|-----3-3-|---------|-----0-----| 
 
G-|----------|---------|--------/4--|---------|----------|---------|----54---| 
D-|----------|-------4/|-5---5----5-|-0---0---|---4/7-10-|-2---4-5-|-7----70-| 
A-|-3---33-3-|-5---5---|---5--------|---0---0-|-6--------|---2-----|---------| 
E-|---3---3--|---5-----|------------|---------|----------|---------|---------| 
 
G-|--------4-|-------|-------------|-------------|-0---0--0-|------0----| 
D-|-5---5-5--|-0---0-|---2---0-----|-0-0-0-0-0-0-|---0---0--|---24---0--| 
A-|---5------|---0---|-3---3---3---|-------------|----------|-3---------| 
E-|----------|-------|-----------33|-------------|----------|-----------| 
 
G-|-0---0-4-|----2/777-|---------|---------|------------|-------------| 
D-|---0-----|-0--------|-5-4-2-0-|---------|------------|-0-0-0-0-0-0-| 
A-|---------|----------|---------|-3-2-0---|-2/5-7-9/10-|-------------| 
E-|---------|----------|---------|---------|------------|-------------| 
 
G-|-0-0-0-0--|-----0-0--|-0-0-0-00-|----4754--|-----------|--------|---------| 
D-|--0-0-0-0-|--234-0-0-|--0-0-0---|-047----7-|-55442/500-|--------|---------| 
A-|----------|-3--------|----------|----------|-----------|-3-2-0--|----5----| 
E-|----------|----------|----------|----------|-----------|--------|-0-----3-| 
 
G-|----------|------------------| 
D-|----------|--------/9-5-5----| 
A-|---45-7/9-|-10-1010------5---| 
E-|----------|----------------3-| 
	  

there isn't a video lesson for this song

request
Search Paypal
auto scroll beats size up size down change color hide chords drawings
tab show chords e-chords YouTube Clip e-chords hide all tabs e-chords go to top tab