Pixies

Monkey Gone To Heaven

Pixies

bass

by  PQNINO2003

save to print version add songbook text version e-mail correct tuner
chordsukulelecavacokeyboardtabbassdrumsharmonicaflute Guitar Pro
close

there isn't a video lesson for this song

chords

Monkey Gone To Heaven

Year: 1989 - Album: Doolittle [SACD]

	  		[email protected] 

Introdução/Refrão 
G------------------------------------------------ 
D------------------------------------------------ 
A----------------5---5--5----2---2--2----5---5--5 
E-0---2--2--5------------------------------------ 

Intervalo 
G-------------------------- 
D-------------------------- 
A-5-----------2-----------5 
E-------------------------- 

Variação 
G------------ 
D------------ 
A------------ 
E-0---2--2--5 
		  

See also:

bass Marcus Miller - Mr. pastorius bass Chevelle - Closure bass Cream - Crossroads bass The Clash - I Fought The Law bass Children Of Bodom - Every Time I Die bass Disturbed - Down With The Sickness (ver. 2)
e-chords

Other versions:

bass Pixies - Monkey Gone To Heaven
auto scroll beats size up size down change color hide chords drawings
tab show chords e-chords YouTube Clip e-chords hide all tabs e-chords go to top tab

share