Pink Floyd

home > Pink Floyd

Coming Back To Life Bass Tab

Pink Floyd

Difficulty: nolevelnolevel

by eduardo%5Flyvio

tuner correct add songbook print version text version save to e-mail
chordsukulelecavacokeyboardtabbassdrumsharmonicsflute Guitar Pro
chords

Coming Back To Life

Year: 1994 - Album: Division Bell

  		.....shining sun 
||------------------------------------------- 
||------------------------------------------- 
||----------3-3-3-3-3-3-3-3--3-3-3-3-3-3-3-3- 
||------------------------------------------- 
 
---------------------------------- 
---------------------------------- 
-3-3-3-3-3-3-3-3--3-3-3-3-3-3-3--- 
--------------------------------3- 
 
lost in thought.... 
|------------------------------------ 
|-----------------------------5------ 
|-3-3-3-3-3-3-3-3--3-3-3-3-3/7-7\3-3- 
|------------------------------------ 
 
-------------------------------------- 
-------------------------------------- 
-------------------------------------- 
-1-1-1-1-1-1-5/8-5--8\1-1-1-1-1-1-1-3- 
 
 
while the seeds of.... 
---------------------------------- 
---------------------------------- 
-0-0-0-0-0-0-0-0------------------ 
------------------3-3-3-3-3-3-3-0- 
 
----------------------------------| 
----------------------------------| 
----------------------------------| 
-1-1-1-1-1-1-1-1--1-1-1-1-1-1-1-3-| 
 
outside the rain..... 
|------------------------------------ 
|-----------------------------5------ 
|-3-3-3-3-3-3-3-3--3-3-3-3-3/7-7\3-3- 
|------------------------------------ 
 
---------------------------------- 
---------------------------------- 
---------------------------------- 
-1-1-1-1-1-1-1-1--1-1-1-1-1-1-1-3- 
 
while I pondered.... 
---------------------------------- 
---------------------------------- 
-0-0-0-0-0-0-0-0------------------ 
------------------3-3-3-3-3-3-3-0- 
 
----------------------------------| 
----------------------------------| 
----------------------------------| 
-1-1-1-1-1-1-1-1--1-1-1-1-1-1-1-3-| 
 
 
I took a heavenly... 
|---------------------------------- 
|---------------------------------- 
|---------------------------------- 
|-5-5-5-5-5-5-5\1--1-1-1-1-1-1-1-3- 
 
 
---------------------------------- 
---------------------------------- 
-0-0-0-0-0-0-0-0--1-1-1-1-1-1-1-1- 
---------------------------------- 
 
for killing the past... 
--------------------------------- 
--------------------------------- 
-0-0-0-0-0-0-0-0-------------0h2- 
-----------------3-3-3-3-3-3----- 
 
----------------------------------|| 
----------------------------------|| 
-3-3-3-3-3-3-3-3--3-3-3-3-3-3-3---|| 
--------------------------------3-|| 
 
 
(Solo) 
||------------------------------------ 
||-----------------------------5------ 
||-3-3-3-3-3-3-3-3--3-3-3-3-3/7-7\3-3- 
||------------------------------------ 
 
------------------------------------- 
------------------------------------- 
----------------------3--------------- 
-1-1-1-1-1-1-5/8\5-5----1-1-1-1-1-1-3- 
 
---------------------------------- 
---------------------------------- 
-0-0-0-0-0-0-0-0------------------ 
------------------3-3-3-3-3-3-3-0- 
 
---------------------------------- 
---------------------------------- 
---------------------------------- 
-1-1-1-1-1-1-1-1--1-1-1-1-1-1-1-3- 
 
|-------------------------------- 
|-------------------------------- 
|-3-3-3-3-3-3-3-3--3-3-3-3-3/7-5- 
|-------------------------------- 
 
--------------------------------------- 
--------------------------------------- 
--------------------------------------- 
-8\1--1-1-1-1-1-1-1-1--1-1-1-1-1-1-1-3- 
 
---------------------------------- 
---------------------------------- 
-0-0-0-0-0-0-0-0------------------ 
------------------3-3-3-3-3-3-3-3- 
 
----------------------------------|| 
----------------------------------|| 
----------------------------------|| 
-1-1-1-1-1-1-1-1--1-1-1-1-1-1-1-3-|| 
(Solo End) 
 
 
 
I took a heavenly... 
||--------------------------------- 
||--------------------------------- 
||--------------------------------- 
||-5-5-5-5-5~--5\1-1-1-1-1-1-1-1-3- 
 
--------------------------------- 
--------------------------------- 
--------------------------------- 
-5-5-5-5-5~--5\6-6-6-6-6-6-6\---- 
 
headed straight... 
----------------------------- 
----------------------------- 
-0~~~-0-0-0-0-0-------------- 
-----------------3-3-3-3-3-3- 
 
---------------------------------------| 
---------------------------------------| 
-0h2--3-3-3-3-3-3-3-3--3-3-3-3-3-0-----| 
-----------------------------------3-0-| 
 
 
(Outro) 
 
||------------------------------------- 
||------------------------------------- 
||-3-3-3-3-3-3-3-3--3-3-3-3-3/7-5------ 
||--------------------------------8-5\- 
 
---------------------------------- 
---------------------------------- 
---------------------------------- 
-1-1-1-1-1-1-1-1--1-1-1-1-1-1-1-3- 
 
------------------------------ 
------------------------------ 
------------------------------ 
-5~~~5-5-5-5\3--3~~~3-3-3-3-3- 
 
---------------------------------- 
---------------------------------- 
---------------------------------- 
-1-1-1-1-1-1-1-1--1-1-1-1-1-1-1-1- 
 
 
 
---------------------------------- 
-----------------------------5---- 
-3~~~3-3-3-3-3--3-3-3-3-3-3/7-7\3- 
---------------------------------- 
 
---------------------------------- 
---------------------------------- 
---------------------------------- 
-1-1-1-1-1-1-1-1--1-1-1-1-1-1-1h3- 
 
---------------------------------- 
---------------------------------- 
---------------------------------- 
-5-5-5-5-5-5-5-5\3--3~~~3-3-3-3-3- 
 
---------------------------------- 
---------------------------------- 
---------------------------------- 
-1-1-1-1-1-1-1-1--1-1-1-1-1-1-1-3- 
 
 
------------------------------ 
------------------------------ 
------------------------------ 
-5~~~5-5-5-5\1--1~~~1-1-1-1-1- 
 
------------------------------ 
------------------------------ 
------------------------------ 
-5~~~5-5-5-5-5--6~~~6-6-6-6-6- 
 
----------------------------------|| 
----------------------------------|| 
------------------------------0h2-|| 
-5-5-5-5-5-5-5-5--3-3-3-3-3-3-----|| 
 
||----------------------------------- 
||----------------------------------- 
||--3-3-3-3-3-3-3-3--3-3-3-3-3-3-3-3- 
||----------------------------------- 
 
-----------------------------------------------|| 
-----------------------------------------------|| 
-3-3-3-3-3-3-3-3--3-3-3-3-3-3-3-3---3~~~~~~~~~-|| 
-----------------------------------------------|| 
 
 

	  

Search Paypal
auto scroll beats size up size down change color hide chords drawings
tab show chords e-chords YouTube Clip e-chords hide all tabs e-chords go to top tab