Piebald

Grace Kelly With Wings

Piebald

bass

by  TARIKIKE

save to print version add songbook text version e-mail correct tuner
chordsukulelecavacokeyboardtabbassdrumsharmonicaflute Guitar Pro
close

there isn't a video lesson for this song

chords

Grace Kelly With Wings

	  		
Verse 
 come in at :26 
G|-------------------------------------| 
D|-55555555----------------------------| 
A|----------55555555-33333333-00000000-| 
E|-------------------------------------| 
  
 1:14 
G|--------------------------| 
D|-----5------5--5-44-22----| 
A|-0h3----0h3------------55-| 
E|--------------------------| 
  
 1:39 
G|-------------------------| 
D|-------------------------| 
A|-0--0--0--33333333333333-| 
E|-------------------------| 
  
 2:31 
G|----------------------------------------------------------------7h5-| 
D|----------------------------------5-7-9-7---------------5-7-9-7------| 
A|------------------------------5h7---------9-5h7-----5h7--------------| 
E|-77-7/1477-0h2/77-77/147-77--------------------77------------------| 
  
 2:58 
G|---------------| 
D|---------------| 
A|----5h7-7-9999-| 
E|-77------------| 
  
 3:21 
G|-------------| 
D|-------------|  let these notes ring 
A|-------------| 
E|-5-4-3-2-1-0-| 
  
 3:56 
G|-------------| 
D|-------------| 
A|-0-5-7-0-5-7-| 
E|-------------| 
  
 4:04 
G|-----------------| 
D|-----------------| 
A|-000-555-000-555-| 
E|-----------------| 
  
 4:12 
G|---------------| 
D|---------------| 
A|-13/00-5h3-5h3-| 
E|---------------| 
  
 4:22      4:38 
G|-----------------|--------| 
D|-----------------|--------| 
A|-000-555-000-555-|--------| 
E|-----------------|-15/333-| 
  
 4:40 
G|----------------------------------------| 
D|-5-4-2/7--5-4-2----5-4-2/7--5-4-2-------| 
A|----------------0-----------------5-4-2-| 
E|----------------------------------------| 
  
 4:56 
G|-------------------------------------|-------| 
D|-55555555----------------------------|-55555-| 
A|----------55555555-33333333-00000000-|-------| 
E|-------------------------------------|-------| 



************************************ 

| h  Hammer-on 
| /  Slide up 

************************************ 
		  

See also:

bass Red Hot Chili Peppers - Blackeyed Blond bass Ben Harper - Excuse Me Mr bass Red Hot Chili Peppers - I Could Have Lied bass Good Charlotte - Change bass Ben Harper - Sexual Healing bass Audioslave - Be Yourself
e-chords

Other versions:

bass Piebald - Grace Kelly With Wings
auto scroll beats size up size down change color hide chords drawings
tab show chords e-chords YouTube Clip e-chords hide all tabs e-chords go to top tab

share