Pearl Jam

home > Pearl Jam

Who You Are Bass Tab

Pearl Jam

Difficulty: nolevelnolevel

by Apocalyptica

tuner correct add songbook print version text version save to e-mail
chordsukulelecavacokeyboardtabbassdrumsharmonicsflute Guitar Pro
chords

Who You Are

  		Transcribed by: Ross Duncan 
e-mail: [email protected] 
 
Verse: 
 bass enters at cd time 1:18 
-|-----------------------------------------------------------------------------|- 
-|-----------------------------------------------------------------------------|- 
-|-2/7-7-7-7-7-----2/7-7-7-7-7------2/7-7-7-7-7-----2/7-7-7-7-7-----7-7-7-7-7--|- 
-|-----------------------------------------------------------------------------|- 
 
-|------------------------------|- 
-|------------------------------|- 
-|--2/7-7-7-7-7-----2/7-7-7-7-7-|- 
-|------------------------------|- 
 
Bridge part with no bass 
 
Verse: 
  
-|-----------------------------------------------------------------------------|- 
-|-----------------------------------------------------------------------------|- 
-|-2/7-7-7-7-7-----2/7-7-7-7-7------2/7-7-7-7-7-----2/7-7-7-7-7-----7-7-7-7-7--|- 
-|-----------------------------------------------------------------------------|- 
 
-|------------------------------|- 
-|------------------------------|- 
-|--2/7-7-7-7-7-----2/7-7-7-7-7-|- 
-|------------------------------|- 
 
Bridge: 
 cd time 2:42 
-|-----------------------------|- 
-|-----6-7-9-11-9-7-6-7-6------|- 
-|-7-9--------------------9-7--|- 
-|-----------------------------|- 
   4x  
 
-|---------------------------------------------------|- 
-|-----6-7-9-11-9-7-6-7-6-----6-7-9-11-9-7-6-7-6-----|- 
-|-7-9--------------------7-9--------------------9-7-|- 
-|---------------------------------------------------|- 
 
 
Outro: 
 
-|-----------------------------|- 
-|-----------------------------|- 
-|-2/7-7-7-7-7-----2/7-7-7-7-7-|- 
-|-----------------------------|- 
 

	  

Search Paypal
auto scroll beats size up size down change color hide chords drawings
tab show chords e-chords YouTube Clip e-chords hide all tabs e-chords go to top tab