Pearl Jam

home > Pearl Jam

Hail Hail Bass Tab

Pearl Jam

Difficulty: nolevelnolevel

by Apocalyptica

tuner correct add songbook print version text version save to e-mail
chordsukulelecavacokeyboardtabbassdrummharmonicsflute Guitar Pro
chords

Hail Hail

  		Transcribed By: Ross Duncan 
e-mail: [email protected] 
 
Intro: 
G|------------------------------------------------------------------- 
D|-----------------------------------5------------------------------- 
A|-5-5-5-8-8-4-4-4-4-5-5-5-----3-5-7---7-------------------5-5-5-8-8- 
E|-------------------------3-5-----------8-8-8-6-6-6-6-6-6----------- 
 
 
G---------------------------------------------------------------| 
D----------------------5---7-5----------------------------------| 
A--4-4-4-4-5-----3-5-7---7-----7--------------------------------| 
E------------3-5-----------------8-8-6-6-6-6-6-5-6-6-6-5-6-6-5-3| 
 
Verse: 
G|------------------------------------------------------------------- 
D|------------------------------------------------------------------- 
A|------------------------------------------------------------------- 
E|-3-3-2-3-3-3-2-3-3-3--6-6-5-3--3-3-2-3-3-3-2-3-3-3--6-6-5-3-3-3-6-6 
   Ah is there...		 Both of us..			Are we 
 
G-------------------------------------------------------------------- 
D-------------------------------------------------------------------- 
A-------------------------------------------------------------------- 
E-6-6-6-6--3-3-3-6-6-6--6-6-6--6-6-6-8-8-8-3-2-3-2-3-3-3-2-3-3-3-6-6- 
			is that all..	     I get the... 
 
G-------------------------------------------------------------------- 
D-------------------------------------------------------------------- 
A-------------------------------------------------------------------- 
E-5-3--2-3-2-3-3-3-2-3-3-3--6-6-5-3-3-3-6-6-6--6-6-6--3-3-3--6-6-6--- 
       I don't wanna...			How do I... 
 
G--------------------| 
D--------------------| 
A--------------------| 
E-6-6-6--6-6-6--6-6-6| 
 
Chorus: 
G|------------------------------------------------------------------- 
D|---------------------------------5--------------------------------- 
A|-5-5-5-8-8-4-4-4-5-5-5-----3-5-7---7------------5-5-5-8-8-4-4-4-5-- 
E|-----------------------3-5-----------8--8-6-5-6-------------------- 
 
 
G----------------------------------------------------| 
D-----------5---7-5----------------------------------| 
A-----3-5-7---7-----7--------------------------------| 
E-3-5-----------------8-8-6-6-6-6-6-5-6-6-6-5-6-6-5-3| 
 
Repeat the Verse with slight variations 
Repeat the Chorus 
 
Bridge: 
G|---------------------------------------------------------------- 
D|---------------------------------------------------------------- 
A|-5-4-5-7-7------------5-4-5-7-7------------5-4-5-7-7------------ 
E|-----------6-6--3-3-3-----------6-6--3-3-3-----------6-6--3-3-3- 
 
 
G----------------------------------------------------------------- 
D----------------------------------------------------------------- 
A-5-4-5-7-7------------------------------------------------------- 
E-----------6-6--3-3-3-3-3--3-3-3-3-3-3--3-3-3-3-3-3--3-3-3-3-3-3- 
 
 
G----------------------------------------------------------------- 
D----------------------------------------------------------------- 
A-10-7-8------8-7----10-7-8--------------10-7-8------8-7---10-7-8- 
E--------8-10---------------8-10--8-7-----------8-10-------------- 
  Sometimes..        That I could..       Are you..        Bandaged... 
 
G----------------------------------------------| 
D----------------------------------------------| 
A-------------8-8-8-10----8-8-10-10-8---10-10-8| 
E-8-10--8-7------------------------------------| 
 
 
Outro: 
G|--------------------------------------------------------------- 
D|-----------------------------------5--------------------------- 
A|-5-5-5-8-8-4-4-4-4-5-5-5-----3-5-7---7-----------5-5-5-8-8-4-4- 
E|-------------------------3-5-----------8-8-6-5-6--------------- 
 
 
G---------------------------------------------------------------- 
D-----------------5---7-5---------------------------------------- 
A-4-4-5-----3-5-7---7-----7---------5-4-5-7-7------------5-4-5-7- 
E-------3-5-----------------8-8-6-6-----------6-6-6-3-3---------- 
 
 
G--------------------------------------------------------------| 
D--------------------------------------------------------------| 
A-5-7-8-7-8-10-10-10--5-4-5-7-7----------5-4-5-7-5-7-8-7-8-10--| 
E-------------------------------6-6-3-3------------------------| 
 
repeat final note several times and fade out. 
 
 
 

	  

Search Paypal
auto scroll beats size up size down change color hide chords drawings
tab show chords e-chords YouTube Clip e-chords hide all tabs e-chords go to top tab