Pearl Jam

home > Pearl Jam

God's Dice Bass Tab

Pearl Jam

Difficulty: nolevelnolevel

by Apocalyptica

tuner correct add songbook print version text version save to e-mail
chordsukulelecavacokeyboardtabbassdrumsharmonicsflute Guitar Pro
chords

God's Dice

Year: 2000 - Album: Binaural

  		transcriber - William Stevens, [email protected] 
 
 
G-------------------------------------------------------- 
D-------------------------------------------------------- 
A-0-0-3-3----2-2--0-0--/-12-12-12-12-12-12-12-12-12-12-12 
E--------3-3--------------------------------------------- 
 
G----------|--------------------------------------------- 
D----------|--------------------------------------------- 
A-12-12-12-|12-10----------------2-2----0-0-0-0-0-0-0-0-- 
E----------|------12--8-8-8--3-3------------------------- 
             it¨s in the cards................... 
G----------|--------------------------------------------- 
D----------|--------------------------------------------- 
A----------|--8-7-----------3-3-----2-2-0-0-0-0-0-0-0-0-0 
E----------|------8-6-6-5-5-----3-3---------------------- 
     
 Chorus: 
G-------------------------------------------------------- 
D--7-5--------------------------------------------------- 
A------7-3-3-3-3-3-3-3-3-3-3-3-3-3-5-0-0-0-0-0-0-0-0-0-0- 
E-------------------------------------------------------- 
 
G-----------------------------------------| 
D-----------------------------------------| 
A-0-0-0------3-3-3-3-3-3-3-3-3-3-3-3-3-5--| 
E--------1-1------------------------------| 
 
G------------------------------------------------------------- 
D------------------------------------------------------------- 
A--0-0--3-3------2-2-0-0---/12-12-12-12-12-12-12-12-12-12-12-- 
E------------3-3---------------------------------------------- 
 
G----------|--------------------------------------------- 
D----------|--------------------------------------------- 
A-12-12-12-|-12-10----3-3-----2-2-0-0-0-0-0-0-0-0-0-0---- 
E----------|-------12-----3-3---------------------------- 
 
G---------|------------------------------------------------- 
D---------|------------------------------------------------- 
A-0-0-0-0-|-8-7-----------3-3-----2-2-0-0--/-12-12-12-12-12- 
E---------|-----8-6-6-5-5-----3-3--------------------------- 
 
G-------------| 
D-------------| 
A-12-12-12-12-| 
E-------------| 
 
now do the Chorus again but do it twice rather than once, then back into  
verse once more 
 
OUTRO 
 
G--------------|--------------|--------------------------| 
D--------------|--------------|--------------------------| 
A--------------|--------------|--------------------------| 
E--O------2--3-|---O----2--3--|--O---2--3-3-3-3-3-3-3-3-3| 
 
G-------------------------------------------------------------- 
D-------------------------------------------------------------- 
A-0-0---3-3-----2-2--0-0---/12-12-12-12-12-12-12-12-12-12-12-12 
E-----------3-3------------------------------------------------ 
 
G----|------------------------------------------------| 
D----|------------------------------------------------| 
A-12-|-12-10----------------2-2-0-0-0-0-0-0-0-0-0-----| 
E----|-------12-8-8-8--3-3----------------------------| 
 
G|-------------------------------------------------| 
D|-------------------------------------------------| 
A|-8-7-----------3-3-----2-2-2-2-2-2-2-2-2-2-2-2-2-| 
E|-----8-6-6-5-5-----3-3---------------------------| 
 
 
   Chorus III 
G--------------------------------------------------------- 
D--------------------------------------------------------- 
A-----5-5-5-5-5-5-5-5-5-5-5-5-5-7------------------------- 
E-3-3-----------------------------7-7-7-7-7-7-7-7-7-7-7-7- 
 
repeat four times then slide down to end it 
 
G-----| 
D-----| 
A-----| 
E-7/--|
	  

Search Paypal
auto scroll beats size up size down change color hide chords drawings
tab show chords e-chords YouTube Clip e-chords hide all tabs e-chords go to top tab