Pearl Jam

home > Pearl Jam

Glorified G Bass Tab

Pearl Jam

Difficulty: nolevelnolevel

by Apocalyptica

tuner correct add songbook print version text version save to e-mail
chordsukulelecavacokeyboardtabbassdrumsharmonicsflute Guitar Pro
chords

Glorified G

Year: 1993 - Album: Vs. [Jewel Case & EcoPak]

  		Transcribed by: Ross Duncan 
e-mail: [email protected] 
 
note: When you see the b beside the f note (3 on the D string) bend the  
      note a quarter. 
Intro: 
G|------------|no bass|------------------------------------------------- 
D|------------|for 3  |------------------------------------------------- 
A|-5-5-5------|bars   |-5-5-5-------------3-3----------5-5-5------------ 
E|-------3-3/-|       |-------3-3---5---5-----3-3-5-5--------3-3---5---5 
 
               Verse: 
 --------------|-------------------------------------------------------- 
 ---------3b---|-------------------------------------------------------- 
 -3-3-5-5---5--|-5/8----8/10--10--10\--3-3-3-3-2-2-3-/5-5--5--5-5-/8-8-- 
 --------------|-------------------------------------------------------- 
	      Got a gun...				Glorified...		       
					    Chorus: 
 ------------------------------------------|---------------------------- 
 ------------------------------------------|---------------------------- 
 -8--8-8-/10-10--10--10-10\--3-3-3-3-2-2-3-|-5-5-5------------3-3------- 
 ------------------------------------------|-------3-3---5--5-----3-3-5\ 
					     Glorified version... 
 
 ----------------------------------------------------------------------- 
 ---------------------------3b------------------------------------------ 
 --5-5-5------------3-3-5-5-----5-5-5------------3-3---------5-5-5------ 
 --------3-3---5--5-------------------3-3---5--5-----3-3-5\--------3-3-- 
 
 
 ----------------| 
 --------------3b| 
 ------3-3-5-5---| 
 -5--5-----------| 
 
 Repeat Verse, 
 
 2nd Chorus: 
 ------------------------------------------------------------------------ 
 -------------------------3---------------------------------------------- 
 -5-5-5---------------3h5----5-5-5------------3-3---------5-5-5---------- 
 -------3-3-/5-/5\--5--------------3-3-3-5--5-----3-3-5\--------3-3-3-5-- 
  Glorified Version... 
 
 -----------------------------------------| 
 -----------3b----------------------------| 
 ---3-3-5-5-----5-5-5------------3-3-5-5-5| 
 -5-------------------3-3-3-5--5----------| 
 
 
 Bridge: 
 ------------------------------------------------------------------------ 
 ------------------------------------------------------------------------ 
 -3-3-3--4-4-4--6-6-6-6-6-6-6-6-6-6-6-6-6-6-6\-3-3--4-4--6-6-6--6-6-6\-3- 
 ------------------------------------------------------------------------ 
					       Always... 
 
 ------------------------------------------------------------| 
 ------------------------------------------------------------| 
 -3--4-4--6-6-6--6-6-6\-3-3-3--4-4-4--6-6-6--6-6--6--6-6-6-6\| 
 ------------------------------------------------------------| 
 
 No Bass For 4 Bars than come back in with: 
 
 ------------------------------------------------------------------------ 
 ------------------------------------------------------------------------ 
 -5--5--5-5-5-5-5--5--5-5-5-5-5--5--5-5-5-5-5-5-5-5-5-5-0-5---5/8---8/10- 
 ------------------------------------------------------------------------ 
							  Life Comes.. 
 
 ------------------------------------------------------------------------ 
 ------------------------------------------------------------------------ 
 --10\--3-3-3-3-2-2-3-5---5/8---8/10--10--10\--3-3-3-3-2-2-3-5-5--5--5-5- 
 ------------------------------------------------------------------------ 
		      Life comes... 
 
 ------------------------------------------------------------------------ 
 ------------------------------------------------------------------------ 
 -/8-8--8--8-8-/10-10--10--10-10\--3-3--3-2-2-3-5-5--5--5-5-/8-8--8--8-8- 
 ------------------------------------------------------------------------ 
 
				     
 ------------------------------------------------------------------------ 
 ------------------------------------------------------------------------ 
 -/10-10--10--10-10\-3-3-3-3-2-2-3-/5-5-5-5-5-5-5-5-/8-8--8--8-8--7-7--7- 
 ------------------------------------------------------------------------ 
 
 
 ------------------------------------------------------------------------ 
 ------------------------------------------------------------------------ 
 -7-7--6-6-6-6-6-6-6--5-5--5--5-5--3-3--3--3-3--2-2-2-2-2-2-2-2--1-1-1-1- 
 ------------------------------------------------------------------------ 
 
 
 ------------------------------------------------------------------------ 
 ------------------------------------------------------------------------ 
 1-1-1-1/5-5-5-5-5-5-5-5-/8-8--8--8-8--7-7--7--7-7--6-6-6-6-6-6-6-6-5-5-- 
 ------------------------------------------------------------------------ 
 
 
 ---------------------------------------------------------| 
 ---------------------------------------------------------| 
 5--5-5-\3-3--3--3-3-3-2-2-2-2-2-2-2-2-1-1-1-1-1-1-1-1--/5| 
 ---------------------------------------------------------| 
 
gradually slow down on final notes. 
 
 

	  

Full key step upFull key step up
Half key step upHalf key step up
Half key step downHalf key step down
Full key step downFull key step down
Search Paypal
auto scroll beats size up size down change color hide chords drawings
tab show chords e-chords YouTube Clip e-chords hide all tabs e-chords go to top tab