Pearl Jam

home > Pearl Jam

Faithfull Bass Tab

Pearl Jam

Difficulty: nolevelnolevel

by Apocalyptica

tuner correct add songbook print version text version save to e-mail
chordsukulelecavacokeyboardtabbassdrumsharmonicsflute Guitar Pro
chords

Faithfull

Year: 1998 - Album: Yield

  		Transcribed by: Shaun Boer 
Email: [email protected] 
 
There's a few sort of tricky bends in this song... u should be right... 
 
G|---------------------------|-----------------------------|------------------ 
D|---------------------------|----------------9--10--9--\--|------------------ 
A|--10-------10-------10--\--|---10------10----------------|------------------ 
E|------10-------10----------|-------10--------------------|------------------ 
  Intro                                                                        
 
 
-|-------------------------------|-------------------------------------------- 
-|-------------------------------|-------------------------------------------- 
-|--10-------10------------------|-------------------------------------------- 
-|------10-------10--8--10---\---|-------------------------------------------- 
                                                                               
 
-|---------------------------|----------------------------|------------------- 
-|---------------------------|----------------------------|------------------- 
-|--10-------10-------10--\--|---10------10--9--10--9--\--|------------------- 
-|------10-------10----------|-------10-------------------|------------------- 
  Verse                                                                        
 
 
-|---------------------------|------------------------------|----------------- 
-|---------------------------|------------------------------|----------------- 
-|--10-------10-------10--\--|---10------10-----------------|----------------- 
-|------10-------10----------|-------10-------10--8--10--\--|----------------- 
                                                                               
 
-|----------------------------------|----------------------------------------- 
-|----------------------------------|----------------------------------------- 
-|---3-b-4-r-3--1-----1--1-1--1-----|---3-b-4-r-3--1-----1-1--3--1------------ 
-|-----------------3-------------3--|-----------------3-------------3--3--3--- 
  Pre-Chorus                                                              x2   
 
-|------------------------------------|----------------------------------|---- 
-|------------------------------------|----------------------------------|---- 
-|---3----------------3---------------|---6------------------------------|---- 
-|------3-3-3-3-3-3------3-3-3-3-3-3--|------3-3-3-3-3---7---3-3-3-3-3---|---- 
  Chorus                                                             x4        
 
-|-----------------------|-----------------------|---------------------------- 
-|-----------------------|-----------------------|---------------------------- 
-|--3-b-4-r-3-p-1-----1--|--3-b-4-r-3-p-1-----3--|---------------------------- 
-|-----------------3-----|-----------------3-----|--3--3--1--3--3--3--1--3---- 
  Bridge                                                                       
 
-|-----------------------|-----------------------|---------------------------- 
-|-----------------------|-----------------------|---------------------------- 
-|--3-b-4-r-3-p-1-----6--|--3-b-4-r-3-p-1-----8--|--10-10-8-10--10-10-8-10---- 
-|-----------------3-----|-----------------3-----|---------------------------- 
                Repeat Bridge until Chorus then final verse...                
 
 
 
 
 

	  

Search Paypal
auto scroll beats size up size down change color hide chords drawings
tab show chords e-chords YouTube Clip e-chords hide all tabs e-chords go to top tab