Pearl Jam

home > Pearl Jam

Corduroy Bass Tab

Pearl Jam

Difficulty: BeginnerBeginner

by Apocalyptica

tuner correct add songbook print version text version save to e-mail
chordsukulelecavacokeyboardtabbassdrummharmonicsflute Guitar Pro
chords

Corduroy

  		Album:Vitalogy 
Transcribed by: Ross Duncan 
e-mail: [email protected] 
 
Intro: 
starts at cd time 6.5 seconds 
G|---------------14------------------------16-14-12/--------------------- 
D|-12-14-16-14------17-16-17-16-14-16------------------16-17-16--14---12- 
A|----------------------------------------------------------------------- 
E|------------------------------------------------------------------0---- 
 
 
G------------------------------------------------------------------------ 
D----12----12---12--12-10-9-7----7--9--7-----7--9-10-9-9----------------- 
A-----------------------------10----------10-------------0-0-0-0-0-0-0--- 
E--0--------------0----------------------------------------------------8- 
 
 
G------------| 
D------------| 
A------------| 
E-8-8-8-8-8-8| 
 
 
Verse: 
G|----------------------------------------------------------| 
D|----------------------------------------------------------| 
A|-8--8-8-8-8-7/---------------/8--8-8-8-8-7\---------------| 
E|---------------3--3-3--3-3-3----------------3--3-3--3-3-3-|Repeat 
		    The waiting... 
 
Chorus: 
G|---------------------------------------------------------------------- 
D|---------------------------------------------------------------------- 
A|-3-3-3-3-2--2-2-0--------3-3-3-3-2--2-2-0--------3-3-3-3-2--2-2-0----- 
E|------------------3-3--3------------------3-3--3------------------3-3- 
   I don't want...	   I would rather... 
 
G---------------------------------| 
D---------------------------------| 
A---3-3-3-3-2--2-2-0--------------| 
E-3------------------3-3--3--3-3-3| 
 
 
before 2nd verse: 
G|--------------------------------------------------------------| 
D|--------------------------------------------------------------|play 
A|-7-7-7-7-7-7-7-7-7-7-7-7-7-7-7-7-0--0-0-0-0-0-0---------------|twice 
E|------------------------------------------------8--8-8-8-8-8-8| 
 
Repeat Verse 
 
Repeat Chorus 
 
 
Bridge: 
G|------------------------------------------------------------------ 
D|------------------------------------------------------------------ 
A|-2-2-2-2-2-2-2-2-2-2-2-2-2-2-2-2--3-3-3-3-3-3-3-3-3-3-3-3-3-3-3-3- 
E|------------------------------------------------------------------ 
 
 
G------------------------------------------------------------------- 
D------------------------------------------------------------------- 
A--2--2-----0-2---2-2-2-2-3--3-3-3-3-2-2-2-2-5-5-5-2--2-2-----0-2-2- 
E-------0-2-----------------------------------------------0-2------- 
					  Everything has... 
 
G------------------------------------------------------------------ 
D------------------------------------------------------------------ 
A--2-2-2-2--3-3-3-2--2-0--0-0-5--5-2-2-2-2-2-2-2-2-2-2-2-2-2-2-2-2- 
E------------------------------------------------------------------ 
			      Take my hand...					 
 
G---------------------------------| 
D---------------------------------| 
A--3-3-3-3-3-3-3-3-3-3-3-3-3-3-3-3| 
E---------------------------------| 
 
Repeat Chorus 
 
Last verse and outro: 
G|------------------------------------------------------------------ 
D|------------------------------------------------------------------ 
A|---------------------------/8--8-8-8-8-7\---------------/8--8-8-8- 
E|-1-1-1-1-1-0--3--3--3-3-3-----------------3--3-3--3-3-3----------- 
		  I Aint...			But live and... 
 
G------------------------------------------------------------------- 
D------------------------------------------------------------------- 
A-8-7\----------------/8-8-8-8-8-7\---------------/8--8-8-8--------- 
E------3--3-3--3-3-3----------------3--3-3--3-3-3------------0------ 
		I figure I'll...	  All alone... 
 
G------------------------------------------------------------------- 
D------------------------------------------------------------------- 
A-7-7-7-7-7-7-7-7-0-----0-3----3/7-7-7-7-7-7-7-7-7-7-7-7-7-7-7-7-0-- 
E------------------------------------------------------------------- 
 
 
G------------------------------------------------------------------- 
D------------------------------------------------------------------- 
A---0-3----3/7-7-7-7-7-7-7-7-7-7-7-7-7-7-7-7-0----0-3----3/7-7-7-7-7 
E------------------------------------------------------------------- 
 
 
G-------------------------------------------------------| 
D-------------------------------------------------------| 
A-7-7-7-7-7-7-7-7-7-7-7-0-0-0-0-0-0-0-0-3-3-3-3-3-3-3-3-| 
E-------------------------------------------------------| 
 
 
 
 

	  

Search Paypal
auto scroll beats size up size down change color hide chords drawings
tab show chords e-chords YouTube Clip e-chords hide all tabs e-chords go to top tab