Pearl Jam

home > Pearl Jam

Bushleaguer Bass Tab

Pearl Jam

Difficulty: nolevelnolevel

by Apocalyptica

tuner correct add songbook print version text version save to e-mail
chordsukulelecavacokeyboardtabbassdrumsharmonicsflute Guitar Pro
chords

Bushleaguer

Year: 2002 - Album: Riot Act

  		 Transcribed by: Ross Duncan 
 e-mail: [email protected] 
 
 Tuning: Standard 
 
  Intro/Chorus: 
 |----------------------------| 
 |----------------------------|Repeat 6 times 
 |-2-2-2-2--------------------| 
 |----------2-2--3-3-3-3--2-2-| 
 
 
  Verse: 
 |-----------------------------------------8---6-6----------------------8-6--- 
 |---------------------------------------9---------9-6--9-------------9-----9- 
 |-4-4-4-4--7-7\-2---2---2---2--/6-9---9------------------9----9----9--------- 
 |-----------------------------------7----------------------7----7------------ 
 
  
 -9-8-6-6------------8---6-6---------------------8-6---11-9-8------| 
 ---------9--------9---------9-6--9------------9-----9--------11-9-| 
 ------------9---9------------------9----9---9---------------------| 
 --------------7----------------------7----7-----------------------| 
 
 
  Pre-Chorus  
 |---------------------------------------------------------| 
 |---------------------------------------------------------| 
 |-5-5--7-7-7--7-7-5---5-5--7-7-7--7-7-5--5-5--7-7-7--7-7\-| 
 |---------------------------------------------------------| 
 
 Repeat Chorus 3 times 
 
 Repeat Verse 
 
 Repeat Pre-Chorus 
 
  Last Chorus: 
 |-------------------------------------------------------------------------------- 
 |----------------------------------------------------5-4--2---------------------- 
 |-2-2-2-2---------------------2-2-2-2-------------/5--------2-2-2-2-------------- 
 |----------2-2--3-3-3-3--2-2-----------2-2--3-3-3--------------------2-2--3-3-3-3 
 
 
 --------------------------------------------------------------------------------- 
 --------------------------------------------------------------------------------- 
 ------4-4-4-4--7-7--2-2-2-2---------------------2-2-2-2----------------5-4--0-2-2 
 -2-2-------------------------2-2--3-3-3-3--2-2-----------2-2--3-3-3-/5----------- 
 
 
 --------------------------------------| 
 --------------------------------------| 
 -2-2---------------------4-4-4-4--7-7-| 
 ------2-2--3-3-3-3--2-2---------------| 
 
 
  Outro: 
 |-------------7--------| 
 |-------------7--------|Repeat and fade  
 |-2-----2--0-----------| 
 |----2-----------------| 
               *Harmonics 
	  

Search Paypal
auto scroll beats size up size down change color hide chords drawings
tab show chords e-chords YouTube Clip e-chords hide all tabs e-chords go to top tab