P.Diddy

Bad boys for life

P.Diddy

bass Expert expert

by  PATO_

save to print version add songbook text version e-mail correct tuner
chordsukulelecavacokeyboardtabbassdrumsharmonicaflute Guitar Pro
close

there isn't a video lesson for this song

chords

Bad boys for life

	  		pegay o baixo na guitarra ok? 
 
INTRO: 
 
e------------------------------ 
B------------------------------ 
G------------------------------ 
D------------------------------ 
A----4-2-0---4-2-0------------- 
E-0-2------2-------2-2--------- 
 
a música todinha eh assim: 
 
e------------------------------------------------------- 
B------------------------------------------------------- 
G-2----------------------------------------------------- 
D---4-2-4-----2----------------------------------------- 
A---------------4----4-2-4---4-4-2-0---4-2-0------------ 
E------------------------------------2-------2-2-2-2-2-2 
 
eh bem facinha xD 

		  

See also:

bass Beastie Boys - No Sleep Till Brooklyn bass Eminem - Say Goodbye To Hollywood bass Eminem - Say Goodbye Hollywood (ver. 2) bass Beastie Boys - Eggman bass Eminem - Say Goodbye Hollywood bass Nelly - Dillema
e-chords

Other versions:

bass P.Diddy - Bad boys for life
auto scroll beats size up size down change color hide chords drawings
tab show chords e-chords YouTube Clip e-chords hide all tabs e-chords go to top tab

share