Paul McCartney

home > Paul McCartney

That Was Me Bass Tab

Paul McCartney

Difficulty: nolevelnolevel

by sabrjoao

tuner correct add songbook print version text version save to e-mail
chordsukulelecavacokeyboardtabbassdrumsharmonicsflute Guitar Pro
chords

That Was Me

  		
Intro 
G|---------------------------------|----------------------------14-\-| 
D|14-----\-------------------------|---------------------------------| 
A|---------------------------------|---------------------------------| 
E|---------------------------------|---------------------------------| 

Chorus 
G|---------------------------------|---------------------------------| 
D|---------------------------------|---------------------------------| 
A|0--------------------------------|---------------------------------| 
E|---------------------------------|---------------------------------| 

G|---------------------------------|----------------------------14-\-| 
D|---------------------------------|---------------------------------| 
A|---------------------------------|---------------------------------| 
E|---------------------------------|---------------------------------| 

G|---------------------------------|---------------------------------| 
D|---------------------------------|---------------------------------| 
A|0-----------3---------------3----|------------3---------------3----| 
E|----3---5-------5---3---5--------|5---3---5-------5---3---5--------| 

G|---------------------------------|---------------------------------| 
D|---------------------------------|---------------------------------| 
A|------------3---------------3----|------------3---------------3----| 
E|5---3---5-------5---3---5--------|5---3---5-------5---3---5--------| 

G|---------------------------------|---------------------------------| 
D|---------------------------------|---------------------------------| 
A|5---5---5---3---------------3----|5---5---5---5---------------3----| 
E|----------------5---5---5--------|----------------5---5---5--------| 

G|---------------------------------|----------------9----------------| 
D|---------------------------------|------------2/9------------------| 
A|5---5---5---3--------------------|---------------------------------| 
E|----------------5---5---5---3----|0---0---0------------------------| 

Interlude 
G|14--12--11-----------------------|----------------------------14-\-| 
D|------------14--12--10--9---8----|7---5---4------------------------| 
A|---------------------------------|------------7-0-5----------------| 
E|---------------------------------|--------------------8---7--------| 

Chorus 
G|---------------------------------|---------------------------------| 
D|---------------------------------|---------------------------------| 
A|------------3---------------3----|------------3---------------3----| 
E|5---3---5-------5---3---5--------|5---3---5-------5---3---5--------| 

G|---------------------------------|------------5---------------14-\-| 
D|---------------------------------|7---5---7-------7---5---7--------| 
A|------------3---------------3/7--|---------------------------------| 
E|5---3---5-------5---3---5--------|---------------------------------| 

G|---------------------------------|---------------------------------| 
D|---------------------------------|---------------------------------| 
A|------------3---------------3----|------------3---------------3----| 
E|5---3---5-------5---3---5--------|5---3---5-------5---3---5--------| 

G|---------------------------------|---------------------------------| 
D|---------------------------------|---------------------------------| 
A|------------3---------------3----|------------3---------------3----| 
E|5---3---5-------5---3---5--------|5---3---5-------5---3---5--------| 

G|---------------------------------|---------------------------------| 
D|---------------------------------|---------------------------------| 
A|5---5---5---3--------------------|5---5---5---3--------------------| 
E|----------------5---5---5---3----|----------------5---5---5---3----| 

G|---------------------------------|----------------9-------\--------| 
D|---------------------------------|------------2/9------------------| 
A|5---5---5---3--------------------|---------------------------------| 
E|----------------5---5---5---3----|0---0---0------------------------| 

Interlude 
G|14--12--11-----------------------|---------------------------------| 
D|------------14--12--10--9---8----|7---5---4------------------------| 
A|---------------------------------|------------7-0-5----------------| 
E|---------------------------------|--------------------8---7---6----| 

G|------/-7-5-7--------------------|---------------------------------| 
D|---------------------------------|---------------------------------| 
A|----------------5---5---5---5----|------------3---5---5---5---3----| 
E|5---3----------------------------|5---5---5------------------------| 

G|---------------------------------|---------------------------------| 
D|---------------------------------|------------------------2---2-/9-| 
A|------------3---5---5---5---3----|--------------------2------------| 
E|5---5---5------------------------|5---5---5---3---0----------------| 

G|9---9----------------------------|---------------------------------| 
D|--------9---9--------------------|---------------------------------| 
A|----------------5---5---0---3----|----------------5---5---0---3----| 
E|---------------------------------|5---5---3---5--------------------| 

G|---------------------------------|---------------| 
D|---------------------------------|---------------| 
A|----------------5---5---3---2----|---------------| 
E|5---5---3---5--------------------|5---5---3---2--| 

G|---------------------------------|---------------------------------| 
D|----------------------/-9-/-9----|7---5---4------------------------| 
A|---------------------------------|------------7---5----------------| 
E|0---0-/-7---7---0---0------------|--------------------8---7---6----| 
            
G|----14*-12--11-------------------| 
D|----------------14--12--10--9----|  *   double 
A|---------------------------------| 
E|5--------------------------------| 

Chorus 
G|------------5---------------5----|---------------------------------| 
D|7---5---7-------7---5---7--------|---------------------------------| 
A|---------------------------------|------------3---------------3----| 
E|---------------------------------|5---3---5-------5---3---5--------| 

G|----------------------------5----|----------------------------14*\-| 
D|---------------------------------|---------------------------------|*   double 
A|------------3--------------------|------------3--------------------| 
E|5---3---5-------5---3---5--------|5---3---5-------5---3---5--------| 

G|---------------------------------|---------------------------------| 
D|---------------------------------|---------------------------------| 
A|------------3---------------3----|------------3---------------3----| 
E|5---3---5-------5---3---5--------|5---3---5-------5---3---5--------| 

G|---------------------------------|------------5---7-5-7---5--------| 
D|---------------------------------|7---5---7-------------------7----| 
A|------------3---------------3/7--|---------------------------------| 
E|5---3---5-------5---3---5--------|---------------------------------| 

G|---------------------------------|---------------------------------| 
D|---------------------------------|---------------------------------| 
A|5---3---5---3---------------3----|5---3---5---3---------------3----| 
E|----------------5---3---5--------|----------------5---3---5--------| 

G|---------------------------------|----------------9-------\--------| 
D|---------------------------------|------------7-/-9-------\--------| 
A|5---3---5---3--------------------|--------7------------------------| 
E|----------------5---3---5---3----|0----/7--------------------------| 

G|------------------------------/--|14--12--11-----------------------| 
D|7---5---4------------------------|------------14--12--10--9---8----| 
A|------------7---5---3---2--------|---------------------------------| 
E|---------------------------------|---------------------------------| 

G|------------5---------------5----|------------5---------------14-\-| 
D|7---5---7-------7---5---7--------|7---5---7-------7---5---7--------| 
A|---------------------------------|---------------------------------| 
E|---------------------------------|---------------------------------| 

G|---------------------------------|---------------------------------| 
D|7---5---4------------------------|---------------------------------| 
A|------------7---5----------------|------------3---------------3----| 
E|--------------------8---7---6----|5---3---5-------5---3---5------0-| 

******************************************************************** 

| /   Slide up 
| \   Slide down 

******************************************************************** 
	  

Search Paypal
auto scroll beats size up size down change color hide chords drawings
tab show chords e-chords YouTube Clip e-chords hide all tabs e-chords go to top tab